  0
SECTION
  2
HEADER
  9
$ACADVER
  1
AC1015
  9
$ACADMAINTVER
 70
     6
  9
$DWGCODEPAGE
  3
ANSI_932
  9
$INSBASE
 10
0.0
 20
0.0
 30
0.0
  9
$EXTMIN
 10
-1201.86797552944
 20
-835.2205880261408
 30
0.0
  9
$EXTMAX
 10
1208.98248278722
 20
834.9298245858708
 30
0.0
  9
$LIMMIN
 10
-420.0
 20
-297.0
  9
$LIMMAX
 10
420.0
 20
297.0
  9
$ORTHOMODE
 70
     0
  9
$REGENMODE
 70
     1
  9
$FILLMODE
 70
     1
  9
$QTEXTMODE
 70
     0
  9
$MIRRTEXT
 70
     1
  9
$LTSCALE
 40
0.5
  9
$ATTMODE
 70
     1
  9
$TEXTSIZE
 40
0.2
  9
$TRACEWID
 40
0.05
  9
$TEXTSTYLE
  7
Standard
  9
$CLAYER
  8
0
  9
$CELTYPE
  6
ByLayer
  9
$CECOLOR
 62
   256
  9
$CELTSCALE
 40
1.0
  9
$DISPSILH
 70
     0
  9
$DIMSCALE
 40
1.0
  9
$DIMASZ
 40
6.000003814697266
  9
$DIMEXO
 40
1.0
  9
$DIMDLI
 40
10.0
  9
$DIMRND
 40
0.0
  9
$DIMDLE
 40
0.0
  9
$DIMEXE
 40
1.0
  9
$DIMTP
 40
0.0
  9
$DIMTM
 40
0.0
  9
$DIMTXT
 40
7.0
  9
$DIMCEN
 40
0.0
  9
$DIMTSZ
 40
0.0
  9
$DIMTOL
 70
     0
  9
$DIMLIM
 70
     0
  9
$DIMTIH
 70
     0
  9
$DIMTOH
 70
     0
  9
$DIMSE1
 70
     0
  9
$DIMSE2
 70
     0
  9
$DIMTAD
 70
     1
  9
$DIMZIN
 70
     8
  9
$DIMBLK
  1

  9
$DIMASO
 70
     1
  9
$DIMSHO
 70
     1
  9
$DIMPOST
  1

  9
$DIMAPOST
  1

  9
$DIMALT
 70
     0
  9
$DIMALTD
 70
     2
  9
$DIMALTF
 40
25.4
  9
$DIMLFAC
 40
1.0
  9
$DIMTOFL
 70
     0
  9
$DIMTVP
 40
0.0
  9
$DIMTIX
 70
     0
  9
$DIMSOXD
 70
     0
  9
$DIMSAH
 70
     0
  9
$DIMBLK1
  1

  9
$DIMBLK2
  1

  9
$DIMSTYLE
  2
Standard
  9
$DIMCLRD
 70
     0
  9
$DIMCLRE
 70
     0
  9
$DIMCLRT
 70
     0
  9
$DIMTFAC
 40
0.65
  9
$DIMGAP
 40
0.09
  9
$DIMJUST
 70
     0
  9
$DIMSD1
 70
     0
  9
$DIMSD2
 70
     0
  9
$DIMTOLJ
 70
     0
  9
$DIMTZIN
 70
     0
  9
$DIMALTZ
 70
     0
  9
$DIMALTTZ
 70
     0
  9
$DIMUPT
 70
     0
  9
$DIMDEC
 70
     2
  9
$DIMTDEC
 70
     2
  9
$DIMALTU
 70
     2
  9
$DIMALTTD
 70
     2
  9
$DIMTXSTY
  7
Standard
  9
$DIMAUNIT
 70
     0
  9
$DIMADEC
 70
     2
  9
$DIMALTRND
 40
0.0
  9
$DIMAZIN
 70
     2
  9
$DIMDSEP
 70
    46
  9
$DIMATFIT
 70
     3
  9
$DIMFRAC
 70
     0
  9
$DIMLDRBLK
  1

  9
$DIMLUNIT
 70
     2
  9
$DIMLWD
 70
    -2
  9
$DIMLWE
 70
    -2
  9
$DIMTMOVE
 70
     0
  9
$LUNITS
 70
     2
  9
$LUPREC
 70
     4
  9
$SKETCHINC
 40
0.1
  9
$FILLETRAD
 40
0.5
  9
$AUNITS
 70
     0
  9
$AUPREC
 70
     0
  9
$MENU
  1
.
  9
$ELEVATION
 40
0.0
  9
$PELEVATION
 40
0.0
  9
$THICKNESS
 40
0.0
  9
$LIMCHECK
 70
     0
  9
$CHAMFERA
 40
0.5
  9
$CHAMFERB
 40
0.5
  9
$CHAMFERC
 40
1.0
  9
$CHAMFERD
 40
0.0
  9
$SKPOLY
 70
     0
  9
$TDCREATE
 40
2456500.819248924
  9
$TDUCREATE
 40
2456500.444248924
  9
$TDUPDATE
 40
2456500.819249467
  9
$TDUUPDATE
 40
2456500.444249467
  9
$TDINDWG
 40
0.0000000116
  9
$TDUSRTIMER
 40
0.0000000116
  9
$USRTIMER
 70
     1
  9
$ANGBASE
 50
0.0
  9
$ANGDIR
 70
     0
  9
$PDMODE
 70
     0
  9
$PDSIZE
 40
1.0
  9
$PLINEWID
 40
0.0
  9
$SPLFRAME
 70
     0
  9
$SPLINETYPE
 70
     6
  9
$SPLINESEGS
 70
     8
  9
$HANDSEED
  5
596
  9
$SURFTAB1
 70
     6
  9
$SURFTAB2
 70
     6
  9
$SURFTYPE
 70
     6
  9
$SURFU
 70
     6
  9
$SURFV
 70
     6
  9
$UCSBASE
  2

  9
$UCSNAME
  2

  9
$UCSORG
 10
0.0
 20
0.0
 30
0.0
  9
$UCSXDIR
 10
1.0
 20
0.0
 30
0.0
  9
$UCSYDIR
 10
0.0
 20
1.0
 30
0.0
  9
$UCSORTHOREF
  2

  9
$UCSORTHOVIEW
 70
     0
  9
$UCSORGTOP
 10
0.0
 20
0.0
 30
0.0
  9
$UCSORGBOTTOM
 10
0.0
 20
0.0
 30
0.0
  9
$UCSORGLEFT
 10
0.0
 20
0.0
 30
0.0
  9
$UCSORGRIGHT
 10
0.0
 20
0.0
 30
0.0
  9
$UCSORGFRONT
 10
0.0
 20
0.0
 30
0.0
  9
$UCSORGBACK
 10
0.0
 20
0.0
 30
0.0
  9
$PUCSBASE
  2

  9
$PUCSNAME
  2

  9
$PUCSORG
 10
0.0
 20
0.0
 30
0.0
  9
$PUCSXDIR
 10
1.0
 20
0.0
 30
0.0
  9
$PUCSYDIR
 10
0.0
 20
1.0
 30
0.0
  9
$PUCSORTHOREF
  2

  9
$PUCSORTHOVIEW
 70
     0
  9
$PUCSORGTOP
 10
0.0
 20
0.0
 30
0.0
  9
$PUCSORGBOTTOM
 10
0.0
 20
0.0
 30
0.0
  9
$PUCSORGLEFT
 10
0.0
 20
0.0
 30
0.0
  9
$PUCSORGRIGHT
 10
0.0
 20
0.0
 30
0.0
  9
$PUCSORGFRONT
 10
0.0
 20
0.0
 30
0.0
  9
$PUCSORGBACK
 10
0.0
 20
0.0
 30
0.0
  9
$USERI1
 70
     0
  9
$USERI2
 70
     0
  9
$USERI3
 70
     0
  9
$USERI4
 70
     0
  9
$USERI5
 70
     0
  9
$USERR1
 40
0.0
  9
$USERR2
 40
0.0
  9
$USERR3
 40
0.0
  9
$USERR4
 40
0.0
  9
$USERR5
 40
0.0
  9
$WORLDVIEW
 70
     1
  9
$SHADEDGE
 70
     3
  9
$SHADEDIF
 70
    70
  9
$TILEMODE
 70
     1
  9
$MAXACTVP
 70
    64
  9
$PINSBASE
 10
0.0
 20
0.0
 30
0.0
  9
$PLIMCHECK
 70
     0
  9
$PEXTMIN
 10
1.000000000000000E+20
 20
1.000000000000000E+20
 30
1.000000000000000E+20
  9
$PEXTMAX
 10
-1.000000000000000E+20
 20
-1.000000000000000E+20
 30
-1.000000000000000E+20
  9
$PLIMMIN
 10
0.0
 20
0.0
  9
$PLIMMAX
 10
12.0
 20
9.0
  9
$UNITMODE
 70
     0
  9
$VISRETAIN
 70
     0
  9
$PLINEGEN
 70
     1
  9
$PSLTSCALE
 70
     0
  9
$TREEDEPTH
 70
  3020
  9
$CMLSTYLE
  2
Standard
  9
$CMLJUST
 70
     0
  9
$CMLSCALE
 40
1.0
  9
$PROXYGRAPHICS
 70
     0
  9
$MEASUREMENT
 70
     1
  9
$CELWEIGHT
370
    -1
  9
$ENDCAPS
280
     0
  9
$JOINSTYLE
280
     0
  9
$LWDISPLAY
290
     1
  9
$INSUNITS
 70
     4
  9
$HYPERLINKBASE
  1

  9
$STYLESHEET
  1

  9
$XEDIT
290
     1
  9
$CEPSNTYPE
380
     0
  9
$PSTYLEMODE
290
     1
  9
$FINGERPRINTGUID
  2
{C5D3C8C8-53C9-4E3F-B76F-D09B40CFC934}
  9
$VERSIONGUID
  2
{FAEB1C32-E019-11D5-929B-00C0DF256EC4}
  9
$EXTNAMES
290
     1
  9
$PSVPSCALE
 40
0.0
  9
$OLESTARTUP
290
     0
  0
ENDSEC
  0
SECTION
  2
CLASSES
  0
CLASS
  1
ACDBDICTIONARYWDFLT
  2
AcDbDictionaryWithDefault
  3
ObjectDBX Classes
 90
        0
280
     0
281
     0
  0
CLASS
  1
VISUALSTYLE
  2
AcDbVisualStyle
  3
ObjectDBX Classes
 90
     4095
280
     0
281
     0
  0
CLASS
  1
MATERIAL
  2
AcDbMaterial
  3
ObjectDBX Classes
 90
     1153
280
     0
281
     0
  0
CLASS
  1
SCALE
  2
AcDbScale
  3
ObjectDBX Classes
 90
     1153
280
     0
281
     0
  0
CLASS
  1
DICTIONARYVAR
  2
AcDbDictionaryVar
  3
ObjectDBX Classes
 90
        0
280
     0
281
     0
  0
CLASS
  1
ACDBPLACEHOLDER
  2
AcDbPlaceHolder
  3
ObjectDBX Classes
 90
        0
280
     0
281
     0
  0
CLASS
  1
LAYOUT
  2
AcDbLayout
  3
ObjectDBX Classes
 90
        0
280
     0
281
     0
  0
ENDSEC
  0
SECTION
  2
TABLES
  0
TABLE
  2
VPORT
  5
8
330
0
100
AcDbSymbolTable
 70
     1
  0
VPORT
  5
29
330
8
100
AcDbSymbolTableRecord
100
AcDbViewportTableRecord
  2
*Active
 70
     0
 10
0.0
 20
0.0
 11
1.0
 21
1.0
 12
3.557253628890063
 22
-0.3539951333560225
 13
0.0
 23
0.0
 14
0.5
 24
0.5
 15
0.5
 25
0.5
 16
0.0
 26
0.0
 36
1.0
 17
0.0
 27
0.0
 37
0.0
 40
568.276711651055
 41
1.442412013411851
 42
50.0
 43
0.0
 44
0.0
 50
0.0
 51
0.0
 71
     0
 72
  1000
 73
     1
 74
     1
 75
     0
 76
     0
 77
     0
 78
     0
281
     0
 65
     1
110
0.0
120
0.0
130
0.0
111
1.0
121
0.0
131
0.0
112
0.0
122
1.0
132
0.0
 79
     0
146
0.0
  0
ENDTAB
  0
TABLE
  2
LTYPE
  5
5
330
0
100
AcDbSymbolTable
 70
    53
  0
LTYPE
  5
14
330
5
100
AcDbSymbolTableRecord
100
AcDbLinetypeTableRecord
  2
ByBlock
 70
     0
  3

 72
    65
 73
     0
 40
0.0
  0
LTYPE
  5
15
330
5
100
AcDbSymbolTableRecord
100
AcDbLinetypeTableRecord
  2
ByLayer
 70
     0
  3

 72
    65
 73
     0
 40
0.0
  0
LTYPE
  5
16
330
5
100
AcDbSymbolTableRecord
100
AcDbLinetypeTableRecord
  2
Continuous
 70
     0
  3
Solid line
 72
    65
 73
     0
 40
0.0
  0
LTYPE
  5
40
330
5
100
AcDbSymbolTableRecord
100
AcDbLinetypeTableRecord
  2
HIDDENX2
 70
     0
  3
Hidden (2x) ____ ____ ____ ____ ____ ____ ____ 
 72
    65
 73
     2
 40
19.05
 49
12.7
 74
     0
 49
-6.35
 74
     0
  0
LTYPE
  5
41
330
5
100
AcDbSymbolTableRecord
100
AcDbLinetypeTableRecord
  2
HIDDEN
 70
     0
  3
Hidden __ __ __ __ __ __ __ __ __ __ __ __ __ __
 72
    65
 73
     2
 40
9.524999999999999
 49
6.35
 74
     0
 49
-3.175
 74
     0
  0
LTYPE
  5
42
330
5
100
AcDbSymbolTableRecord
100
AcDbLinetypeTableRecord
  2
HIDDEN2
 70
     0
  3
Hidden (.5x) _ _ _ _ _ _ _ _ _ _ _ _ _ _ _ _ _ 
 72
    65
 73
     2
 40
4.762499999999999
 49
3.175
 74
     0
 49
-1.5875
 74
     0
  0
LTYPE
  5
43
330
5
100
AcDbSymbolTableRecord
100
AcDbLinetypeTableRecord
  2
DASHED
 70
     0
  3
Dashed __ __ __ __ __ __ __ __ __ __ __ __ __ _
 72
    65
 73
     2
 40
19.05
 49
12.7
 74
     0
 49
-6.35
 74
     0
  0
LTYPE
  5
44
330
5
100
AcDbSymbolTableRecord
100
AcDbLinetypeTableRecord
  2
DASHED2
 70
     0
  3
Dashed (.5x) _ _ _ _ _ _ _ _ _ _ _ _ _ _ _ _ _ 
 72
    65
 73
     2
 40
9.524999999999999
 49
6.35
 74
     0
 49
-3.175
 74
     0
  0
LTYPE
  5
45
330
5
100
AcDbSymbolTableRecord
100
AcDbLinetypeTableRecord
  2
DASHEDX2
 70
     0
  3
Dashed (2x) ____  ____  ____  ____  ____  ___
 72
    65
 73
     2
 40
38.09999999999999
 49
25.4
 74
     0
 49
-12.7
 74
     0
  0
LTYPE
  5
46
330
5
100
AcDbSymbolTableRecord
100
AcDbLinetypeTableRecord
  2
DOTX2
 70
     0
  3
Dot (2x) .  .  .  .  .  .  .  .  .  .  .  .  .  .
 72
    65
 73
     2
 40
12.7
 49
0.0
 74
     0
 49
-12.7
 74
     0
  0
LTYPE
  5
47
330
5
100
AcDbSymbolTableRecord
100
AcDbLinetypeTableRecord
  2
DOT
 70
     0
  3
Dot . . . . . . . . . . . . . . . . . . . . . . . .
 72
    65
 73
     2
 40
6.35
 49
0.0
 74
     0
 49
-6.35
 74
     0
  0
LTYPE
  5
48
330
5
100
AcDbSymbolTableRecord
100
AcDbLinetypeTableRecord
  2
DOT2
 70
     0
  3
Dot (.5x) ........................................
 72
    65
 73
     2
 40
3.175
 49
0.0
 74
     0
 49
-3.175
 74
     0
  0
LTYPE
  5
49
330
5
100
AcDbSymbolTableRecord
100
AcDbLinetypeTableRecord
  2
CENTERX2
 70
     0
  3
Center (2x) ________  __  ________  __  _____
 72
    65
 73
     4
 40
101.6
 49
63.5
 74
     0
 49
-12.7
 74
     0
 49
12.7
 74
     0
 49
-12.7
 74
     0
  0
LTYPE
  5
4A
330
5
100
AcDbSymbolTableRecord
100
AcDbLinetypeTableRecord
  2
CENTER
 70
     0
  3
Center ____ _ ____ _ ____ _ ____ _ ____ _ ____
 72
    65
 73
     4
 40
50.8
 49
31.75
 74
     0
 49
-6.35
 74
     0
 49
6.35
 74
     0
 49
-6.35
 74
     0
  0
LTYPE
  5
4B
330
5
100
AcDbSymbolTableRecord
100
AcDbLinetypeTableRecord
  2
CENTER2
 70
     0
  3
Center (.5x) ___ _ ___ _ ___ _ ___ _ ___ _ ___
 72
    65
 73
     4
 40
28.575
 49
19.05
 74
     0
 49
-3.175
 74
     0
 49
3.175
 74
     0
 49
-3.175
 74
     0
  0
LTYPE
  5
4C
330
5
100
AcDbSymbolTableRecord
100
AcDbLinetypeTableRecord
  2
DASHDOTX2
 70
     0
  3
Dash dot (2x) ____  .  ____  .  ____  .  ___
 72
    65
 73
     4
 40
50.8
 49
25.4
 74
     0
 49
-12.7
 74
     0
 49
0.0
 74
     0
 49
-12.7
 74
     0
  0
LTYPE
  5
4D
330
5
100
AcDbSymbolTableRecord
100
AcDbLinetypeTableRecord
  2
DASHDOT
 70
     0
  3
Dash dot __ . __ . __ . __ . __ . __ . __ . __
 72
    65
 73
     4
 40
25.4
 49
12.7
 74
     0
 49
-6.35
 74
     0
 49
0.0
 74
     0
 49
-6.35
 74
     0
  0
LTYPE
  5
4E
330
5
100
AcDbSymbolTableRecord
100
AcDbLinetypeTableRecord
  2
DASHDOT2
 70
     0
  3
Dash dot (.5x) _._._._._._._._._._._._._._._.
 72
    65
 73
     4
 40
12.7
 49
6.35
 74
     0
 49
-3.175
 74
     0
 49
0.0
 74
     0
 49
-3.175
 74
     0
  0
LTYPE
  5
4F
330
5
100
AcDbSymbolTableRecord
100
AcDbLinetypeTableRecord
  2
DIVIDEX2
 70
     0
  3
Divide (2x) ________  .  .  ________  .  .  _
 72
    65
 73
     6
 40
63.5
 49
25.4
 74
     0
 49
-12.7
 74
     0
 49
0.0
 74
     0
 49
-12.7
 74
     0
 49
0.0
 74
     0
 49
-12.7
 74
     0
  0
LTYPE
  5
50
330
5
100
AcDbSymbolTableRecord
100
AcDbLinetypeTableRecord
  2
DIVIDE
 70
     0
  3
Divide ____ . . ____ . . ____ . . ____ . . ____
 72
    65
 73
     6
 40
31.75
 49
12.7
 74
     0
 49
-6.35
 74
     0
 49
0.0
 74
     0
 49
-6.35
 74
     0
 49
0.0
 74
     0
 49
-6.35
 74
     0
  0
LTYPE
  5
51
330
5
100
AcDbSymbolTableRecord
100
AcDbLinetypeTableRecord
  2
DIVIDE2
 70
     0
  3
Divide (.5x) __..__..__..__..__..__..__..__.._
 72
    65
 73
     6
 40
15.875
 49
6.35
 74
     0
 49
-3.175
 74
     0
 49
0.0
 74
     0
 49
-3.175
 74
     0
 49
0.0
 74
     0
 49
-3.175
 74
     0
  0
LTYPE
  5
52
330
5
100
AcDbSymbolTableRecord
100
AcDbLinetypeTableRecord
  2
BORDERX2
 70
     0
  3
Border (2x) ____  ____  .  ____  ____  .  ___
 72
    65
 73
     6
 40
88.89999999999999
 49
25.4
 74
     0
 49
-12.7
 74
     0
 49
25.4
 74
     0
 49
-12.7
 74
     0
 49
0.0
 74
     0
 49
-12.7
 74
     0
  0
LTYPE
  5
53
330
5
100
AcDbSymbolTableRecord
100
AcDbLinetypeTableRecord
  2
BORDER
 70
     0
  3
Border __ __ . __ __ . __ __ . __ __ . __ __ .
 72
    65
 73
     6
 40
44.45
 49
12.7
 74
     0
 49
-6.35
 74
     0
 49
12.7
 74
     0
 49
-6.35
 74
     0
 49
0.0
 74
     0
 49
-6.35
 74
     0
  0
LTYPE
  5
54
330
5
100
AcDbSymbolTableRecord
100
AcDbLinetypeTableRecord
  2
BORDER2
 70
     0
  3
Border (.5x) __.__.__.__.__.__.__.__.__.__.__.
 72
    65
 73
     6
 40
22.225
 49
6.35
 74
     0
 49
-3.175
 74
     0
 49
6.35
 74
     0
 49
-3.175
 74
     0
 49
0.0
 74
     0
 49
-3.175
 74
     0
  0
LTYPE
  5
55
330
5
100
AcDbSymbolTableRecord
100
AcDbLinetypeTableRecord
  2
PHANTOMX2
 70
     0
  3
Phantom (2x) ____________    ____    ____   _
 72
    65
 73
     6
 40
127.0
 49
63.5
 74
     0
 49
-12.7
 74
     0
 49
12.7
 74
     0
 49
-12.7
 74
     0
 49
12.7
 74
     0
 49
-12.7
 74
     0
  0
LTYPE
  5
56
330
5
100
AcDbSymbolTableRecord
100
AcDbLinetypeTableRecord
  2
PHANTOM
 70
     0
  3
Phantom ______  __  __  ______  __  __  ______ 
 72
    65
 73
     6
 40
63.5
 49
31.75
 74
     0
 49
-6.35
 74
     0
 49
6.35
 74
     0
 49
-6.35
 74
     0
 49
6.35
 74
     0
 49
-6.35
 74
     0
  0
LTYPE
  5
57
330
5
100
AcDbSymbolTableRecord
100
AcDbLinetypeTableRecord
  2
PHANTOM2
 70
     0
  3
Phantom (.5x) ___ _ _ ___ _ _ ___ _ _ ___ _ _
 72
    65
 73
     6
 40
31.75
 49
15.875
 74
     0
 49
-3.175
 74
     0
 49
3.175
 74
     0
 49
-3.175
 74
     0
 49
3.175
 74
     0
 49
-3.175
 74
     0
  0
LTYPE
  5
58
330
5
100
AcDbSymbolTableRecord
100
AcDbLinetypeTableRecord
  2
ACAD_ISO06W100
 70
     0
  3
ISO long-dash triple-dot ____ ... ____ ... ____
 72
    65
 73
     8
 40
36.0
 49
24.0
 74
     0
 49
-3.0
 74
     0
 49
0.0
 74
     0
 49
-3.0
 74
     0
 49
0.0
 74
     0
 49
-3.0
 74
     0
 49
0.0
 74
     0
 49
-3.0
 74
     0
  0
LTYPE
  5
59
330
5
100
AcDbSymbolTableRecord
100
AcDbLinetypeTableRecord
  2
ACAD_ISO13W100
 70
     0
  3
ISO double-dash double-dot __ __ . . __ __ . . _
 72
    65
 73
     8
 40
36.0
 49
12.0
 74
     0
 49
-3.0
 74
     0
 49
12.0
 74
     0
 49
-3.0
 74
     0
 49
0.0
 74
     0
 49
-3.0
 74
     0
 49
0.0
 74
     0
 49
-3.0
 74
     0
  0
LTYPE
  5
5A
330
5
100
AcDbSymbolTableRecord
100
AcDbLinetypeTableRecord
  2
ACAD_ISO14W100
 70
     0
  3
ISO dash triple-dot __ . . . __ . . . __ . . . _
 72
    65
 73
     8
 40
24.0
 49
12.0
 74
     0
 49
-3.0
 74
     0
 49
0.0
 74
     0
 49
-3.0
 74
     0
 49
0.0
 74
     0
 49
-3.0
 74
     0
 49
0.0
 74
     0
 49
-3.0
 74
     0
  0
LTYPE
  5
5B
330
5
100
AcDbSymbolTableRecord
100
AcDbLinetypeTableRecord
  2
ACAD_ISO02W100
 70
     0
  3
ISO dash __ __ __ __ __ __ __ __ __ __ __ __ __
 72
    65
 73
     2
 40
15.0
 49
12.0
 74
     0
 49
-3.0
 74
     0
  0
LTYPE
  5
5C
330
5
100
AcDbSymbolTableRecord
100
AcDbLinetypeTableRecord
  2
ACAD_ISO03W100
 70
     0
  3
ISO dash space __    __    __    __    __    __
 72
    65
 73
     2
 40
30.0
 49
12.0
 74
     0
 49
-18.0
 74
     0
  0
LTYPE
  5
5D
330
5
100
AcDbSymbolTableRecord
100
AcDbLinetypeTableRecord
  2
ACAD_ISO04W100
 70
     0
  3
ISO long-dash dot ____ . ____ . ____ . ____ . _
 72
    65
 73
     4
 40
30.0
 49
24.0
 74
     0
 49
-3.0
 74
     0
 49
0.0
 74
     0
 49
-3.0
 74
     0
  0
LTYPE
  5
5E
330
5
100
AcDbSymbolTableRecord
100
AcDbLinetypeTableRecord
  2
ACAD_ISO05W100
 70
     0
  3
ISO long-dash double-dot ____ .. ____ .. ____ . 
 72
    65
 73
     6
 40
33.0
 49
24.0
 74
     0
 49
-3.0
 74
     0
 49
0.0
 74
     0
 49
-3.0
 74
     0
 49
0.0
 74
     0
 49
-3.0
 74
     0
  0
LTYPE
  5
5F
330
5
100
AcDbSymbolTableRecord
100
AcDbLinetypeTableRecord
  2
ACAD_ISO07W100
 70
     0
  3
ISO dot . . . . . . . . . . . . . . . . . . . . 
 72
    65
 73
     2
 40
3.0
 49
0.0
 74
     0
 49
-3.0
 74
     0
  0
LTYPE
  5
60
330
5
100
AcDbSymbolTableRecord
100
AcDbLinetypeTableRecord
  2
ACAD_ISO08W100
 70
     0
  3
ISO long-dash short-dash ____ __ ____ __ ____ _
 72
    65
 73
     4
 40
36.0
 49
24.0
 74
     0
 49
-3.0
 74
     0
 49
6.0
 74
     0
 49
-3.0
 74
     0
  0
LTYPE
  5
61
330
5
100
AcDbSymbolTableRecord
100
AcDbLinetypeTableRecord
  2
ACAD_ISO09W100
 70
     0
  3
ISO long-dash double-short-dash ____ __ __ ____
 72
    65
 73
     6
 40
45.0
 49
24.0
 74
     0
 49
-3.0
 74
     0
 49
6.0
 74
     0
 49
-3.0
 74
     0
 49
6.0
 74
     0
 49
-3.0
 74
     0
  0
LTYPE
  5
62
330
5
100
AcDbSymbolTableRecord
100
AcDbLinetypeTableRecord
  2
ACAD_ISO10W100
 70
     0
  3
ISO dash dot __ . __ . __ . __ . __ . __ . __ . 
 72
    65
 73
     4
 40
18.0
 49
12.0
 74
     0
 49
-3.0
 74
     0
 49
0.0
 74
     0
 49
-3.0
 74
     0
  0
LTYPE
  5
63
330
5
100
AcDbSymbolTableRecord
100
AcDbLinetypeTableRecord
  2
ACAD_ISO11W100
 70
     0
  3
ISO double-dash dot __ __ . __ __ . __ __ . __ _
 72
    65
 73
     6
 40
33.0
 49
12.0
 74
     0
 49
-3.0
 74
     0
 49
12.0
 74
     0
 49
-3.0
 74
     0
 49
0.0
 74
     0
 49
-3.0
 74
     0
  0
LTYPE
  5
64
330
5
100
AcDbSymbolTableRecord
100
AcDbLinetypeTableRecord
  2
ACAD_ISO12W100
 70
     0
  3
ISO dash double-dot __ . . __ . . __ . . __ . . 
 72
    65
 73
     6
 40
21.0
 49
12.0
 74
     0
 49
-3.0
 74
     0
 49
0.0
 74
     0
 49
-3.0
 74
     0
 49
0.0
 74
     0
 49
-3.0
 74
     0
  0
LTYPE
  5
65
330
5
100
AcDbSymbolTableRecord
100
AcDbLinetypeTableRecord
  2
ACAD_ISO15W100
 70
     0
  3
ISO double-dash triple-dot __ __ . . . __ __ . .
 72
    65
 73
    10
 40
39.0
 49
12.0
 74
     0
 49
-3.0
 74
     0
 49
12.0
 74
     0
 49
-3.0
 74
     0
 49
0.0
 74
     0
 49
-3.0
 74
     0
 49
0.0
 74
     0
 49
-3.0
 74
     0
 49
0.0
 74
     0
 49
-3.0
 74
     0
  0
LTYPE
  5
66
330
5
100
AcDbSymbolTableRecord
100
AcDbLinetypeTableRecord
  2
JIS_02_0.7
 70
     0
  3
HIDDEN0.75 _ _ _ _ _ _ _ _ _ _ _ _ _ _ _ _ _ 
 72
    65
 73
     2
 40
1.35
 49
0.75
 74
     0
 49
-0.6
 74
     0
  0
LTYPE
  5
67
330
5
100
AcDbSymbolTableRecord
100
AcDbLinetypeTableRecord
  2
JIS_02_1.0
 70
     0
  3
HIDDEN01 _ _ _ _ _ _ _ _ _ _ _ _ _ _ _ _ _ 
 72
    65
 73
     2
 40
2.0
 49
1.0
 74
     0
 49
-1.0
 74
     0
  0
LTYPE
  5
68
330
5
100
AcDbSymbolTableRecord
100
AcDbLinetypeTableRecord
  2
JIS_02_1.2
 70
     0
  3
HIDDEN01.25  _ _ _ _ _ _ _ _ _ _ _ _ _ _ _ _ _ 
 72
    65
 73
     2
 40
2.5
 49
1.25
 74
     0
 49
-1.25
 74
     0
  0
LTYPE
  5
69
330
5
100
AcDbSymbolTableRecord
100
AcDbLinetypeTableRecord
  2
JIS_02_2.0
 70
     0
  3
HIDDEN02 __ __ __ __ __ __ __ __ __ __ __ 
 72
    65
 73
     2
 40
3.0
 49
2.0
 74
     0
 49
-1.0
 74
     0
  0
LTYPE
  5
6A
330
5
100
AcDbSymbolTableRecord
100
AcDbLinetypeTableRecord
  2
JIS_02_4.0
 70
     0
  3
HIDDEN04 ____ ____ ____ ____ ____ ____ ____ 
 72
    65
 73
     2
 40
5.5
 49
4.0
 74
     0
 49
-1.5
 74
     0
  0
LTYPE
  5
6B
330
5
100
AcDbSymbolTableRecord
100
AcDbLinetypeTableRecord
  2
JIS_08_11
 70
     0
  3
1SASEN11 ___ _ ___ _ ___ _ ___ _ ___ _ ___
 72
    65
 73
     4
 40
12.8
 49
11.0
 74
     0
 49
-0.6
 74
     0
 49
0.6
 74
     0
 49
-0.6
 74
     0
  0
LTYPE
  5
6C
330
5
100
AcDbSymbolTableRecord
100
AcDbLinetypeTableRecord
  2
JIS_08_15
 70
     0
  3
1SASEN15 ____ _ ____ _ ____ _ ____ _ ____ 
 72
    65
 73
     4
 40
17.25
 49
15.0
 74
     0
 49
-0.75
 74
     0
 49
0.75
 74
     0
 49
-0.75
 74
     0
  0
LTYPE
  5
6D
330
5
100
AcDbSymbolTableRecord
100
AcDbLinetypeTableRecord
  2
JIS_08_25
 70
     0
  3
1SASEN25 ________  __  ________  __  _____
 72
    65
 73
     4
 40
28.0
 49
25.0
 74
     0
 49
-1.125
 74
     0
 49
0.75
 74
     0
 49
-1.125
 74
     0
  0
LTYPE
  5
6E
330
5
100
AcDbSymbolTableRecord
100
AcDbLinetypeTableRecord
  2
JIS_08_37
 70
     0
  3
1SASEN37 ________  __  ________  __  _____
 72
    65
 73
     4
 40
40.5
 49
37.5
 74
     0
 49
-1.125
 74
     0
 49
0.75
 74
     0
 49
-1.125
 74
     0
  0
LTYPE
  5
6F
330
5
100
AcDbSymbolTableRecord
100
AcDbLinetypeTableRecord
  2
JIS_08_50
 70
     0
  3
1SASEN50 _______________  __  ____________
 72
    65
 73
     4
 40
53.0
 49
50.0
 74
     0
 49
-1.125
 74
     0
 49
0.75
 74
     0
 49
-1.125
 74
     0
  0
LTYPE
  5
70
330
5
100
AcDbSymbolTableRecord
100
AcDbLinetypeTableRecord
  2
JIS_09_08
 70
     0
  3
2SASEN8 __ _ _ __ _ _ __ _ _ __ _ _ __ _ _ 
 72
    65
 73
     6
 40
10.75
 49
8.0
 74
     0
 49
-0.55
 74
     0
 49
0.55
 74
     0
 49
-0.55
 74
     0
 49
0.55
 74
     0
 49
-0.55
 74
     0
  0
LTYPE
  5
71
330
5
100
AcDbSymbolTableRecord
100
AcDbLinetypeTableRecord
  2
JIS_09_15
 70
     0
  3
2SASEN15 ___ _ _ ___ _ _ ___ _ _ ___ _ _ ___ 
 72
    65
 73
     6
 40
18.9
 49
15.0
 74
     0
 49
-0.9
 74
     0
 49
0.6
 74
     0
 49
-0.9
 74
     0
 49
0.6
 74
     0
 49
-0.9
 74
     0
  0
LTYPE
  5
72
330
5
100
AcDbSymbolTableRecord
100
AcDbLinetypeTableRecord
  2
JIS_09_29
 70
     0
  3
2SASEN29 ______　__  __  ______　__  __  ___
 72
    65
 73
     6
 40
34.0
 49
29.0
 74
     0
 49
-1.2
 74
     0
 49
0.7
 74
     0
 49
-1.2
 74
     0
 49
0.7
 74
     0
 49
-1.2
 74
     0
  0
LTYPE
  5
73
330
5
100
AcDbSymbolTableRecord
100
AcDbLinetypeTableRecord
  2
JIS_09_50
 70
     0
  3
2SASEN50 ____________　__  __  _____________
 72
    65
 73
     6
 40
55.0
 49
50.0
 74
     0
 49
-1.2
 74
     0
 49
0.7
 74
     0
 49
-1.2
 74
     0
 49
0.7
 74
     0
 49
-1.2
 74
     0
  0
ENDTAB
  0
TABLE
  2
LAYER
  5
2
330
0
100
AcDbSymbolTable
 70
     1
  0
LAYER
  5
10
330
2
100
AcDbSymbolTableRecord
100
AcDbLayerTableRecord
  2
0
 70
     0
 62
     7
  6
Continuous
370
    -3
390
F
  0
ENDTAB
  0
TABLE
  2
STYLE
  5
3
330
0
100
AcDbSymbolTable
 70
     2
  0
STYLE
  5
11
330
3
100
AcDbSymbolTableRecord
100
AcDbTextStyleTableRecord
  2
Standard
 70
     0
 40
0.0
 41
1.0
 50
0.0
 71
     0
 42
0.2
  3
txt.shx
  4
bigfont.shx
  0
STYLE
  5
520
330
3
100
AcDbSymbolTableRecord
100
AcDbTextStyleTableRecord
  2
dcStyle0
 70
     0
 40
0.0
 41
0.7801418439716312
 50
0.0
 71
     0
 42
0.2
  3
txt.shx
  4
bigfont
  0
ENDTAB
  0
TABLE
  2
VIEW
  5
6
330
0
100
AcDbSymbolTable
 70
     0
  0
ENDTAB
  0
TABLE
  2
UCS
  5
7
330
0
100
AcDbSymbolTable
 70
     0
  0
ENDTAB
  0
TABLE
  2
APPID
  5
9
330
0
100
AcDbSymbolTable
 70
     2
  0
APPID
  5
12
330
9
100
AcDbSymbolTableRecord
100
AcDbRegAppTableRecord
  2
ACAD
 70
     0
  0
APPID
  5
3F
330
9
100
AcDbSymbolTableRecord
100
AcDbRegAppTableRecord
  2
DaFusionOut
 70
     0
  0
ENDTAB
  0
TABLE
  2
DIMSTYLE
  5
A
330
0
100
AcDbSymbolTable
 70
     1
100
AcDbDimStyleTable
  0
DIMSTYLE
105
27
330
A
100
AcDbSymbolTableRecord
100
AcDbDimStyleTableRecord
  2
Standard
 70
     0
178
     0
340
11
  0
ENDTAB
  0
TABLE
  2
BLOCK_RECORD
  5
1
330
0
100
AcDbSymbolTable
 70
     1
  0
BLOCK_RECORD
  5
1F
330
1
100
AcDbSymbolTableRecord
100
AcDbBlockTableRecord
  2
*Model_Space
340
22
  0
BLOCK_RECORD
  5
1B
330
1
100
AcDbSymbolTableRecord
100
AcDbBlockTableRecord
  2
*Paper_Space
340
1E
  0
BLOCK_RECORD
  5
23
330
1
100
AcDbSymbolTableRecord
100
AcDbBlockTableRecord
  2
*Paper_Space0
340
26
  0
ENDTAB
  0
ENDSEC
  0
SECTION
  2
BLOCKS
  0
BLOCK
  5
20
330
1F
100
AcDbEntity
  8
0
100
AcDbBlockBegin
  2
*Model_Space
 70
     0
 10
0.0
 20
0.0
 30
0.0
  3
*Model_Space
  1

  0
ENDBLK
  5
21
330
1F
100
AcDbEntity
  8
0
100
AcDbBlockEnd
  0
BLOCK
  5
1C
330
1B
100
AcDbEntity
 67
     1
  8
0
100
AcDbBlockBegin
  2
*Paper_Space
 70
     0
 10
0.0
 20
0.0
 30
0.0
  3
*Paper_Space
  1

  0
ENDBLK
  5
1D
330
1B
100
AcDbEntity
 67
     1
  8
0
100
AcDbBlockEnd
  0
BLOCK
  5
24
330
23
100
AcDbEntity
  8
0
100
AcDbBlockBegin
  2
*Paper_Space0
 70
     0
 10
0.0
 20
0.0
 30
0.0
  3
*Paper_Space0
  1

  0
ENDBLK
  5
25
330
23
100
AcDbEntity
  8
0
100
AcDbBlockEnd
  0
ENDSEC
  0
SECTION
  2
ENTITIES
  0
LINE
  5
75
330
1F
100
AcDbEntity
  8
0
  6
Continuous
 62
     2
370
    13
100
AcDbLine
 10
-398.2511560905532
 20
-278.5037838221369
 30
0.0
 11
-398.2511560905532
 21
278.213020381867
 31
0.0
  0
LINE
  5
76
330
1F
100
AcDbEntity
  8
0
  6
Continuous
 62
     2
370
    13
100
AcDbLine
 10
381.6320275572216
 20
278.213020381867
 30
0.0
 11
-398.2511560905532
 21
278.213020381867
 31
0.0
  0
LINE
  5
77
330
1F
100
AcDbEntity
  8
0
  6
Continuous
 62
     2
370
    13
100
AcDbLine
 10
310.1932315402955
 20
-278.5037838221369
 30
0.0
 11
310.1932315402955
 21
-265.1837858827694
 31
0.0
  0
LINE
  5
78
330
1F
100
AcDbEntity
  8
0
  6
Continuous
 62
     2
370
    13
100
AcDbLine
 10
273.3993261105788
 20
-278.5037838221369
 30
0.0
 11
273.3993261105788
 21
-265.1837858827694
 31
0.0
  0
LINE
  5
79
330
1F
100
AcDbEntity
  8
0
  6
Continuous
 62
     2
370
    13
100
AcDbLine
 10
350.1862864114373
 20
-278.5037838221369
 30
0.0
 11
350.1862864114373
 21
-265.1837858827694
 31
0.0
  0
LINE
  5
7A
330
1F
100
AcDbEntity
  8
0
  6
Continuous
 62
     2
370
    13
100
AcDbLine
 10
-398.2511560905532
 20
-265.1837858827694
 30
0.0
 11
381.6320275572216
 21
-265.1837858827694
 31
0.0
  0
LINE
  5
7B
330
1F
100
AcDbEntity
  8
0
  6
Continuous
 62
     2
370
    13
100
AcDbLine
 10
-398.2511560905532
 20
-278.5037838221369
 30
0.0
 11
381.6320275572216
 21
-278.5037838221369
 31
0.0
  0
LINE
  5
7C
330
1F
100
AcDbEntity
  8
0
  6
Continuous
 62
     2
370
    13
100
AcDbLine
 10
381.6320275572216
 20
278.213020381867
 30
0.0
 11
381.6320275572216
 21
-278.5037838221369
 31
0.0
  0
LINE
  5
7D
330
1F
100
AcDbEntity
  8
0
  6
Continuous
 62
     2
370
    13
100
AcDbLine
 10
-222.3002441885001
 20
-278.5037838221369
 30
0.0
 11
-222.3002441885001
 21
-265.1837858827694
 31
0.0
  0
LINE
  5
7E
330
1F
100
AcDbEntity
  8
0
  6
Continuous
 62
     2
370
    13
100
AcDbLine
 10
-101.7002901809901
 20
-278.5037838221369
 30
0.0
 11
-101.7002901809901
 21
-265.1837858827694
 31
0.0
  0
LINE
  5
7F
330
1F
100
AcDbEntity
  8
0
  6
Continuous
 62
     2
370
    13
100
AcDbLine
 10
21.29778870848531
 20
-278.5037838221369
 30
0.0
 11
21.29778870848531
 21
-265.1837858827694
 31
0.0
  0
LINE
  5
80
330
1F
100
AcDbEntity
  8
0
  6
Continuous
 62
     2
370
    13
100
AcDbLine
 10
-78.56978895275824
 20
-7.308605239108147
 30
0.0
 11
-63.85179623558361
 21
-7.308605239108147
 31
0.0
  0
LINE
  5
81
330
1F
100
AcDbEntity
  8
0
  6
HIDDENX2
 62
     2
370
    13
100
AcDbLine
 10
-239.0333496892272
 20
107.1913262173766
 30
0.0
 11
-249.0333578577483
 21
117.1913838738619
 31
0.0
  0
LINE
  5
82
330
1F
100
AcDbEntity
  8
0
  6
HIDDENX2
 62
     2
370
    13
100
AcDbLine
 10
-249.0333578577483
 20
117.1913838738619
 30
0.0
 11
-321.0333412019554
 21
117.1913838738619
 31
0.0
  0
LINE
  5
83
330
1F
100
AcDbEntity
  8
0
  6
HIDDENX2
 62
     2
370
    13
100
AcDbLine
 10
-331.0333926724452
 20
107.1913262173766
 30
0.0
 11
-321.0333412019554
 21
117.1913838738619
 31
0.0
  0
LINE
  5
84
330
1F
100
AcDbEntity
  8
0
  6
HIDDENX2
 62
     2
370
    13
100
AcDbLine
 10
-239.0333496892272
 20
-6.808603593482985
 30
0.0
 11
-331.0333926724452
 21
-6.808603593482985
 31
0.0
  0
LINE
  5
85
330
1F
100
AcDbEntity
  8
0
  6
HIDDENX2
 62
     2
370
    13
100
AcDbLine
 10
-331.0333926724452
 20
-6.808603593482985
 30
0.0
 11
-331.0333926724452
 21
107.1913262173766
 31
0.0
  0
LINE
  5
86
330
1F
100
AcDbEntity
  8
0
  6
HIDDENX2
 62
     2
370
    13
100
AcDbLine
 10
-239.0333496892272
 20
107.1913262173766
 30
0.0
 11
-239.0333496892272
 21
-6.808603593482985
 31
0.0
  0
LINE
  5
87
330
1F
100
AcDbEntity
  8
0
  6
HIDDENX2
 62
     2
370
    13
100
AcDbLine
 10
-48.04529100330546
 20
117.6913855194871
 30
0.0
 11
-68.43383734676172
 21
117.6913855194871
 31
0.0
  0
LINE
  5
88
330
1F
100
AcDbEntity
  8
0
  6
HIDDENX2
 62
     2
370
    13
100
AcDbLine
 10
3.43377187938313
 20
117.6913855194871
 30
0.0
 11
-48.04529100330546
 21
117.6913855194871
 31
0.0
  0
LINE
  5
89
330
1F
100
AcDbEntity
  8
0
  6
HIDDENX2
 62
     2
370
    13
100
AcDbLine
 10
13.43375530392223
 20
107.6913773509659
 30
0.0
 11
3.43377187938313
 21
117.6913855194871
 31
0.0
  0
LINE
  5
8A
330
1F
100
AcDbEntity
  8
0
  6
HIDDENX2
 62
     2
370
    13
100
AcDbLine
 10
13.43375530392223
 20
107.6913773509659
 30
0.0
 11
13.43375530392223
 21
-6.308601947857824
 31
0.0
  0
LINE
  5
8B
330
1F
100
AcDbEntity
  8
0
  6
HIDDENX2
 62
     2
370
    13
100
AcDbLine
 10
13.43375530392223
 20
-6.308601947857824
 30
0.0
 11
-78.56625056332268
 21
-6.308601947857824
 31
0.0
  0
LINE
  5
8C
330
1F
100
AcDbEntity
  8
0
  6
HIDDENX2
 62
     2
370
    13
100
AcDbLine
 10
-78.56625056332268
 20
107.5589723029261
 30
0.0
 11
-78.56625056332268
 21
-6.308601947857824
 31
0.0
  0
LINE
  5
8D
330
1F
100
AcDbEntity
  8
0
  6
HIDDENX2
 62
     2
370
    13
100
AcDbLine
 10
-78.56625056332268
 20
107.5589723029261
 30
0.0
 11
-68.43383734676172
 21
117.6913855194871
 31
0.0
  0
LINE
  5
8E
330
1F
100
AcDbEntity
  8
0
  6
HIDDENX2
 62
     2
370
    13
100
AcDbLine
 10
200.0114466262457
 20
117.6913855194871
 30
0.0
 11
271.5427851361019
 21
117.6913855194871
 31
0.0
  0
LINE
  5
8F
330
1F
100
AcDbEntity
  8
0
  6
HIDDENX2
 62
     2
370
    13
100
AcDbLine
 10
190.0428385709674
 20
-6.308626691839891
 30
0.0
 11
190.0428385709674
 21
107.7188679150422
 31
0.0
  0
LINE
  5
90
330
1F
100
AcDbEntity
  8
0
  6
HIDDENX2
 62
     2
370
    13
100
AcDbLine
 10
190.0407600764738
 20
107.7206989697152
 30
0.0
 11
200.0114466262457
 21
117.6913855194871
 31
0.0
  0
LINE
  5
91
330
1F
100
AcDbEntity
  8
0
  6
HIDDENX2
 62
     2
370
    13
100
AcDbLine
 10
281.542768560641
 20
107.691402094948
 30
0.0
 11
271.5427851361019
 21
117.6913855194871
 31
0.0
  0
LINE
  5
92
330
1F
100
AcDbEntity
  8
0
  6
HIDDENX2
 62
     2
370
    13
100
AcDbLine
 10
281.542768560641
 20
107.6926887820155
 30
0.0
 11
281.542768560641
 21
-6.308626691839891
 31
0.0
  0
LINE
  5
93
330
1F
100
AcDbEntity
  8
0
  6
HIDDENX2
 62
     2
370
    13
100
AcDbLine
 10
190.0428385709674
 20
-6.308626691839891
 30
0.0
 11
281.542768560641
 21
-6.308626691839891
 31
0.0
  0
LINE
  5
94
330
1F
100
AcDbEntity
  8
0
  6
HIDDENX2
 62
     7
370
    13
100
AcDbLine
 10
405.3656633483333
 20
-23.30860841114918
 30
0.0
 11
-367.0142788973953
 21
-23.30860841114918
 31
0.0
  0
LINE
  5
95
330
1F
100
AcDbEntity
  8
0
  6
HIDDENX2
 62
     7
370
    13
100
AcDbLine
 10
-201.4023553461884
 20
146.691332501854
 30
0.0
 11
-201.4023553461884
 21
146.5802320223738
 31
0.0
  0
LINE
  5
96
330
1F
100
AcDbEntity
  8
0
  6
HIDDENX2
 62
     7
370
    13
100
AcDbLine
 10
230.0185726546624
 20
-19.48754372445546
 30
0.0
 11
230.0185726546624
 21
-15.48753055945417
 31
0.0
  0
LINE
  5
97
330
1F
100
AcDbEntity
  8
0
  6
HIDDENX2
 62
     7
370
    13
100
AcDbLine
 10
260.7804891120468
 20
84.69125216424436
 30
0.0
 11
260.7804891120468
 21
108.575455086233
 31
0.0
  0
LINE
  5
98
330
1F
100
AcDbEntity
  8
0
  6
HIDDENX2
 62
     7
370
    13
100
AcDbLine
 10
260.7804891120468
 20
1.691251174270292
 30
0.0
 11
260.7804891120468
 21
25.57547884024098
 31
0.0
  0
LINE
  5
99
330
1F
100
AcDbEntity
  8
0
  6
Continuous
 62
     7
370
    13
100
AcDbLine
 10
-398.2511560905532
 20
224.7651778220461
 30
0.0
 11
-398.2511560905532
 21
181.7342052966269
 31
0.0
  0
LINE
  5
9A
330
1F
100
AcDbEntity
  8
0
  6
Continuous
 62
     7
370
    13
100
AcDbLine
 10
381.6320275572216
 20
224.7651778220461
 30
0.0
 11
381.6320275572216
 21
181.7342052966269
 31
0.0
  0
LINE
  5
9B
330
1F
100
AcDbEntity
  8
0
  6
Continuous
 62
     7
370
    13
100
AcDbLine
 10
-322.2987917468236
 20
-162.5133893268612
 30
0.0
 11
-191.412987089956
 21
-162.5133893268612
 31
0.0
  0
LINE
  5
9C
330
1F
100
AcDbEntity
  8
0
  6
Continuous
 62
     7
370
    13
100
AcDbLine
 10
-191.412987089956
 20
-162.5133893268612
 30
0.0
 11
-191.412987089956
 21
-134.7225570281917
 31
0.0
  0
LINE
  5
9D
330
1F
100
AcDbEntity
  8
0
  6
Continuous
 62
     7
370
    13
100
AcDbLine
 10
-191.412987089956
 20
-134.7225570281917
 30
0.0
 11
-322.2987917468236
 21
-134.7225570281917
 31
0.0
  0
LINE
  5
9E
330
1F
100
AcDbEntity
  8
0
  6
Continuous
 62
     7
370
    13
100
AcDbLine
 10
-322.2987917468236
 20
-134.7225570281917
 30
0.0
 11
-322.2987917468236
 21
-162.5133893268612
 31
0.0
  0
LINE
  5
9F
330
1F
100
AcDbEntity
  8
0
  6
Continuous
 62
     7
370
    13
100
AcDbLine
 10
-333.5333761565889
 20
145.6913786985679
 30
0.0
 11
-314.0333614651718
 21
145.6913786985679
 31
0.0
  0
LINE
  5
A0
330
1F
100
AcDbEntity
  8
0
  6
Continuous
 62
     7
370
    13
100
AcDbLine
 10
-332.2333644547689
 20
125.6914118494897
 30
0.0
 11
-333.5333761565889
 21
125.6914118494897
 31
0.0
  0
LINE
  5
A1
330
1F
100
AcDbEntity
  8
0
  6
Continuous
 62
     7
370
    13
100
AcDbLine
 10
-332.2333644547689
 20
124.6913590702752
 30
0.0
 11
-334.5333299598751
 21
124.6913590702752
 31
0.0
  0
LINE
  5
A2
330
1F
100
AcDbEntity
  8
0
  6
Continuous
 62
     7
370
    13
100
AcDbLine
 10
-309.5333590265363
 20
146.691332501854
 30
0.0
 11
-334.033353058232
 21
146.691332501854
 31
0.0
  0
LINE
  5
A3
330
1F
100
AcDbEntity
  8
0
  6
Continuous
 62
     7
370
    13
100
AcDbLine
 10
-333.5333761565889
 20
145.6913786985679
 30
0.0
 11
-333.5333761565889
 21
125.6914118494897
 31
0.0
  0
LINE
  5
A4
330
1F
100
AcDbEntity
  8
0
  6
Continuous
 62
     7
370
    13
100
AcDbLine
 10
-334.5333299598751
 20
124.6913590702752
 30
0.0
 11
-334.5333299598751
 21
146.1913061122468
 31
0.0
  0
LINE
  5
A5
330
1F
100
AcDbEntity
  8
0
  6
Continuous
 62
     7
370
    13
100
AcDbLine
 10
-314.0333614651718
 20
122.1913260981673
 30
0.0
 11
-314.0333614651718
 21
145.6913786985679
 31
0.0
  0
LINE
  5
A6
330
1F
100
AcDbEntity
  8
0
  6
Continuous
 62
     7
370
    13
100
AcDbLine
 10
-313.0333581739214
 20
123.2253276207775
 30
0.0
 11
-313.0333581739214
 21
138.6914051477797
 31
0.0
  0
LINE
  5
A7
330
1F
100
AcDbEntity
  8
0
  6
Continuous
 62
     7
370
    13
100
AcDbLine
 10
-331.2333611635186
 20
122.491322136746
 30
0.0
 11
-331.2333611635186
 21
124.6913590702752
 31
0.0
  0
LINE
  5
A8
330
1F
100
AcDbEntity
  8
0
  6
Continuous
 62
     7
370
    13
100
AcDbLine
 10
-332.4974940913417
 20
123.6491425456188
 30
0.0
 11
-331.797499210661
 21
122.3490937278257
 31
0.0
  0
LINE
  5
A9
330
1F
100
AcDbEntity
  8
0
  6
Continuous
 62
     7
370
    13
100
AcDbLine
 10
-332.4317988189541
 20
124.0163432394911
 30
0.0
 11
-332.2333644547689
 21
124.191332680668
 31
0.0
  0
LINE
  5
AA
330
1F
100
AcDbEntity
  8
0
  6
Continuous
 62
     7
370
    13
100
AcDbLine
 10
-332.2333644547689
 20
124.191332680668
 30
0.0
 11
-332.2333644547689
 21
124.6913590702752
 31
0.0
  0
LINE
  5
AB
330
1F
100
AcDbEntity
  8
0
  6
Continuous
 62
     7
370
    13
100
AcDbLine
 10
-313.3476809781168
 20
121.7271289945929
 30
0.0
 11
-311.8476512972593
 21
122.3271210717503
 31
0.0
  0
LINE
  5
AC
330
1F
100
AcDbEntity
  8
0
  6
Continuous
 62
     7
370
    13
100
AcDbLine
 10
-312.2190460960919
 20
123.2556142548274
 30
0.0
 11
-312.7590587607192
 21
123.0396487793478
 31
0.0
  0
LINE
  5
AD
330
1F
100
AcDbEntity
  8
0
  6
Continuous
 62
     7
370
    13
100
AcDbLine
 10
-313.0333581739214
 20
138.6914051477797
 30
0.0
 11
-308.533355735286
 21
138.6914051477797
 31
0.0
  0
LINE
  5
AE
330
1F
100
AcDbEntity
  8
0
  6
Continuous
 62
     7
370
    13
100
AcDbLine
 10
-313.0333581739214
 20
145.6913786985679
 30
0.0
 11
-310.0333359281794
 21
145.6913786985679
 31
0.0
  0
LINE
  5
AF
330
1F
100
AcDbEntity
  8
0
  6
Continuous
 62
     7
370
    13
100
AcDbLine
 10
-310.0333359281794
 20
145.6913786985679
 30
0.0
 11
-310.0333359281794
 21
143.6914216040313
 31
0.0
  0
LINE
  5
B0
330
1F
100
AcDbEntity
  8
0
  6
Continuous
 62
     7
370
    13
100
AcDbLine
 10
-310.0333359281794
 20
143.6914216040313
 30
0.0
 11
-309.5333590265363
 21
143.6914216040313
 31
0.0
  0
LINE
  5
B1
330
1F
100
AcDbEntity
  8
0
  6
Continuous
 62
     7
370
    13
100
AcDbLine
 10
-309.0333326369291
 20
146.1913061122468
 30
0.0
 11
-309.0333326369291
 21
144.1913985056744
 31
0.0
  0
LINE
  5
B2
330
1F
100
AcDbEntity
  8
0
  6
Continuous
 62
     7
370
    13
100
AcDbLine
 10
-309.5333590265363
 20
140.6914117302804
 30
0.0
 11
-310.0333359281794
 21
140.6914117302804
 31
0.0
  0
LINE
  5
B3
330
1F
100
AcDbEntity
  8
0
  6
Continuous
 62
     7
370
    13
100
AcDbLine
 10
-310.0333359281794
 20
140.6914117302804
 30
0.0
 11
-310.0333359281794
 21
139.6913589510659
 31
0.0
  0
LINE
  5
B4
330
1F
100
AcDbEntity
  8
0
  6
Continuous
 62
     7
370
    13
100
AcDbLine
 10
-310.0333359281794
 20
139.6913589510659
 30
0.0
 11
-313.0333581739214
 21
139.6913589510659
 31
0.0
  0
LINE
  5
B5
330
1F
100
AcDbEntity
  8
0
  6
Continuous
 62
     7
370
    13
100
AcDbLine
 10
-309.0333326369291
 20
139.6913589510659
 30
0.0
 11
-309.0333326369291
 21
140.1913853406732
 31
0.0
  0
LINE
  5
B6
330
1F
100
AcDbEntity
  8
0
  6
Continuous
 62
     7
370
    13
100
AcDbLine
 10
-309.0333326369291
 20
139.6913589510659
 30
0.0
 11
-308.0333788336429
 21
139.6913589510659
 31
0.0
  0
LINE
  5
B7
330
1F
100
AcDbEntity
  8
0
  6
Continuous
 62
     7
370
    13
100
AcDbLine
 10
-308.0333788336429
 20
139.6913589510659
 30
0.0
 11
-308.0333788336429
 21
139.1913325614587
 31
0.0
  0
LINE
  5
B8
330
1F
100
AcDbEntity
  8
0
  6
Continuous
 62
     7
370
    13
100
AcDbLine
 10
-313.0333581739214
 20
139.6913589510659
 30
0.0
 11
-313.0333581739214
 21
145.6913786985679
 31
0.0
  0
LINE
  5
B9
330
1F
100
AcDbEntity
  8
0
  6
Continuous
 62
     7
370
    13
100
AcDbLine
 10
-295.1833464386691
 20
-21.06863469056407
 30
0.0
 11
-295.1833464386691
 21
-17.56864791517
 31
0.0
  0
LINE
  5
BA
330
1F
100
AcDbEntity
  8
0
  6
Continuous
 62
     7
370
    13
100
AcDbLine
 10
-295.1833464386691
 20
-20.11863898707088
 30
0.0
 11
-286.033380658082
 21
-20.7496600177401
 31
0.0
  0
LINE
  5
BB
330
1F
100
AcDbEntity
  8
0
  6
Continuous
 62
     7
370
    13
100
AcDbLine
 10
-286.033380658082
 20
-17.88759784401191
 30
0.0
 11
-295.1833464386691
 21
-18.51866836264526
 31
0.0
  0
LINE
  5
BC
330
1F
100
AcDbEntity
  8
0
  6
Continuous
 62
     7
370
    13
100
AcDbLine
 10
-295.1833464386691
 20
-19.31864130286704
 30
0.0
 11
-286.033380658082
 21
-19.31864130286704
 31
0.0
  0
LINE
  5
BD
330
1F
100
AcDbEntity
  8
0
  6
Continuous
 62
     7
370
    13
100
AcDbLine
 10
-237.0633823009557
 20
118.7331071645021
 30
0.0
 11
-237.0633823009557
 21
-4.350387951068114
 31
0.0
  0
LINE
  5
BE
330
1F
100
AcDbEntity
  8
0
  6
Continuous
 62
     7
370
    13
100
AcDbLine
 10
-235.0333365242259
 20
136.6913985652791
 30
0.0
 11
-235.0333365242259
 21
-22.30865460786299
 31
0.0
  0
LINE
  5
BF
330
1F
100
AcDbEntity
  8
0
  6
Continuous
 62
     7
370
    13
100
AcDbLine
 10
-237.0633823009557
 20
-5.266905046824832
 30
0.0
 11
-237.0633823009557
 21
-12.85039118271379
 31
0.0
  0
LINE
  5
C0
330
1F
100
AcDbEntity
  8
0
  6
Continuous
 62
     7
370
    13
100
AcDbLine
 10
-240.0333529804775
 20
-23.30860841114918
 30
0.0
 11
-236.0333398154762
 21
-23.30860841114918
 31
0.0
  0
LINE
  5
C1
330
1F
100
AcDbEntity
  8
0
  6
Continuous
 62
     7
370
    13
100
AcDbLine
 10
-237.0633823009557
 20
-13.76688353448844
 30
0.0
 11
-237.0633823009557
 21
-21.27861212238349
 31
0.0
  0
LINE
  5
C2
330
1F
100
AcDbEntity
  8
0
  6
Continuous
 62
     7
370
    13
100
AcDbLine
 10
-240.5333298821206
 20
-17.30863815161138
 30
0.0
 11
-239.5333265908703
 21
-17.30863815161138
 31
0.0
  0
LINE
  5
C3
330
1F
100
AcDbEntity
  8
0
  6
Continuous
 62
     7
370
    13
100
AcDbLine
 10
-239.5333265908703
 20
-21.27861212238349
 30
0.0
 11
-237.0633823009557
 21
-21.27861212238349
 31
0.0
  0
LINE
  5
C4
330
1F
100
AcDbEntity
  8
0
  6
Continuous
 62
     7
370
    13
100
AcDbLine
 10
-241.0333562717278
 20
-22.30865460786299
 30
0.0
 11
-241.0333562717278
 21
-17.8086645412186
 31
0.0
  0
LINE
  5
C5
330
1F
100
AcDbEntity
  8
0
  6
Continuous
 62
     7
370
    13
100
AcDbLine
 10
-239.5333265908703
 20
-17.30863815161138
 30
0.0
 11
-239.5333265908703
 21
-21.27861212238349
 31
0.0
  0
LINE
  5
C6
330
1F
100
AcDbEntity
  8
0
  6
Continuous
 62
     7
370
    13
100
AcDbLine
 10
-241.0333562717278
 20
135.6613560797996
 30
0.0
 11
-251.0183448431344
 21
135.6613560797996
 31
0.0
  0
LINE
  5
C7
330
1F
100
AcDbEntity
  8
0
  6
Continuous
 62
     7
370
    13
100
AcDbLine
 10
-236.0333398154762
 20
137.6913523685653
 30
0.0
 11
-251.0183448431344
 21
137.6913523685653
 31
0.0
  0
LINE
  5
C8
330
1F
100
AcDbEntity
  8
0
  6
Continuous
 62
     7
370
    13
100
AcDbLine
 10
-237.0633823009557
 20
127.233159884112
 30
0.0
 11
-237.0633823009557
 21
119.649673748223
 31
0.0
  0
LINE
  5
C9
330
1F
100
AcDbEntity
  8
0
  6
Continuous
 62
     7
370
    13
100
AcDbLine
 10
-240.5333298821206
 20
131.6913326210633
 30
0.0
 11
-239.5333265908703
 21
131.6913326210633
 31
0.0
  0
LINE
  5
CA
330
1F
100
AcDbEntity
  8
0
  6
Continuous
 62
     7
370
    13
100
AcDbLine
 10
-237.0633823009557
 20
135.6613560797996
 30
0.0
 11
-239.5333265908703
 21
135.6613560797996
 31
0.0
  0
LINE
  5
CB
330
1F
100
AcDbEntity
  8
0
  6
Continuous
 62
     7
370
    13
100
AcDbLine
 10
-241.0333562717278
 20
132.1913590106706
 30
0.0
 11
-241.0333562717278
 21
135.6613560797996
 31
0.0
  0
LINE
  5
CC
330
1F
100
AcDbEntity
  8
0
  6
Continuous
 62
     7
370
    13
100
AcDbLine
 10
-239.5333265908703
 20
135.6613560797996
 30
0.0
 11
-239.5333265908703
 21
131.6913326210633
 31
0.0
  0
LINE
  5
CD
330
1F
100
AcDbEntity
  8
0
  6
Continuous
 62
     7
370
    13
100
AcDbLine
 10
-237.0633823009557
 20
135.6613560797996
 30
0.0
 11
-237.0633823009557
 21
128.1496769798687
 31
0.0
  0
LINE
  5
CE
330
1F
100
AcDbEntity
  8
0
  6
Continuous
 62
     7
370
    13
100
AcDbLine
 10
-333.3033808432774
 20
-15.30868105707486
 30
0.0
 11
-333.3033808432774
 21
-9.83865266146313
 31
0.0
  0
LINE
  5
CF
330
1F
100
AcDbEntity
  8
0
  6
Continuous
 62
     7
370
    13
100
AcDbLine
 10
-335.0333563494823
 20
-23.30860841114918
 30
0.0
 11
-335.0333563494823
 21
124.6913590702752
 31
0.0
  0
LINE
  5
D0
330
1F
100
AcDbEntity
  8
0
  6
Continuous
 62
     7
370
    13
100
AcDbLine
 10
-307.0333755423926
 20
-9.83865266146313
 30
0.0
 11
-315.5751094997941
 21
-9.83865266146313
 31
0.0
  0
LINE
  5
D1
330
1F
100
AcDbEntity
  8
0
  6
Continuous
 62
     7
370
    13
100
AcDbLine
 10
-299.033336840399
 20
-7.808606884733308
 30
0.0
 11
-332.5333728653386
 21
-7.808606884733308
 31
0.0
  0
LINE
  5
D2
330
1F
100
AcDbEntity
  8
0
  6
Continuous
 62
     7
370
    13
100
AcDbLine
 10
-333.3033808432774
 20
-16.30863486036105
 30
0.0
 11
-333.3033808432774
 21
-21.57863290494424
 31
0.0
  0
LINE
  5
D3
330
1F
100
AcDbEntity
  8
0
  6
Continuous
 62
     7
370
    13
100
AcDbLine
 10
-335.0333563494823
 20
-23.30860841114918
 30
0.0
 11
-329.5333629915876
 21
-23.30860841114918
 31
0.0
  0
LINE
  5
D4
330
1F
100
AcDbEntity
  8
0
  6
Continuous
 62
     7
370
    13
100
AcDbLine
 10
-329.0333737179535
 20
-20.80867441496957
 30
0.0
 11
-329.0333737179535
 21
-22.80863150950609
 31
0.0
  0
LINE
  5
D5
330
1F
100
AcDbEntity
  8
0
  6
Continuous
 62
     7
370
    13
100
AcDbLine
 10
-330.0333893811949
 20
-20.30864802536234
 30
0.0
 11
-330.0333893811949
 21
-21.57863290494424
 31
0.0
  0
LINE
  5
D6
330
1F
100
AcDbEntity
  8
0
  6
Continuous
 62
     7
370
    13
100
AcDbLine
 10
-330.0333893811949
 20
-21.57863290494424
 30
0.0
 11
-333.3033808432774
 21
-21.57863290494424
 31
0.0
  0
LINE
  5
D7
330
1F
100
AcDbEntity
  8
0
  6
Continuous
 62
     7
370
    13
100
AcDbLine
 10
-329.5333629915876
 20
-20.30864802536234
 30
0.0
 11
-330.0333893811949
 21
-20.30864802536234
 31
0.0
  0
LINE
  5
D8
330
1F
100
AcDbEntity
  8
0
  6
Continuous
 62
     7
370
    13
100
AcDbLine
 10
-321.405082416537
 20
-13.30864973059215
 30
0.0
 11
-322.0333444932057
 21
-13.30864973059215
 31
0.0
  0
LINE
  5
D9
330
1F
100
AcDbEntity
  8
0
  6
Continuous
 62
     7
370
    13
100
AcDbLine
 10
-318.0333684441775
 20
-13.30864973059215
 30
0.0
 11
-318.6616305208463
 21
-13.30864973059215
 31
0.0
  0
LINE
  5
DA
330
1F
100
AcDbEntity
  8
0
  6
Continuous
 62
     7
370
    13
100
AcDbLine
 10
-316.4916265955508
 20
-9.83865266146313
 30
0.0
 11
-316.6704327959615
 21
-9.83865266146313
 31
0.0
  0
LINE
  5
DB
330
1F
100
AcDbEntity
  8
0
  6
Continuous
 62
     7
370
    13
100
AcDbLine
 10
-307.0333755423926
 20
-9.83865266146313
 30
0.0
 11
-307.0333755423926
 21
-15.30868105707486
 31
0.0
  0
LINE
  5
DC
330
1F
100
AcDbEntity
  8
0
  6
Continuous
 62
     7
370
    13
100
AcDbLine
 10
-305.003391625618
 20
-9.308587077626726
 30
0.0
 11
-305.003391625618
 21
-21.27861212238349
 31
0.0
  0
LINE
  5
DD
330
1F
100
AcDbEntity
  8
0
  6
Continuous
 62
     7
370
    13
100
AcDbLine
 10
-310.5333623177867
 20
-23.30860841114918
 30
0.0
 11
-293.5333929704684
 21
-23.30860841114918
 31
0.0
  0
LINE
  5
DE
330
1F
100
AcDbEntity
  8
0
  6
Continuous
 62
     7
370
    13
100
AcDbLine
 10
-297.5333566475056
 20
-21.27861212238349
 30
0.0
 11
-305.003391625618
 21
-21.27861212238349
 31
0.0
  0
LINE
  5
DF
330
1F
100
AcDbEntity
  8
0
  6
Continuous
 62
     7
370
    13
100
AcDbLine
 10
-307.0333755423926
 20
-21.57863290494424
 30
0.0
 11
-307.0333755423926
 21
-16.30863486036105
 31
0.0
  0
LINE
  5
E0
330
1F
100
AcDbEntity
  8
0
  6
Continuous
 62
     7
370
    13
100
AcDbLine
 10
-311.0333392194298
 20
-20.80867441496957
 30
0.0
 11
-311.0333392194298
 21
-22.80863150950609
 31
0.0
  0
LINE
  5
E1
330
1F
100
AcDbEntity
  8
0
  6
Continuous
 62
     7
370
    13
100
AcDbLine
 10
-310.5333623177867
 20
-20.30864802536234
 30
0.0
 11
-310.0333359281794
 21
-20.30864802536234
 31
0.0
  0
LINE
  5
E2
330
1F
100
AcDbEntity
  8
0
  6
Continuous
 62
     7
370
    13
100
AcDbLine
 10
-310.0333359281794
 20
-20.30864802536234
 30
0.0
 11
-310.0333359281794
 21
-21.57863290494424
 31
0.0
  0
LINE
  5
E3
330
1F
100
AcDbEntity
  8
0
  6
Continuous
 62
     7
370
    13
100
AcDbLine
 10
-310.0333359281794
 20
-21.57863290494424
 30
0.0
 11
-307.0333755423926
 21
-21.57863290494424
 31
0.0
  0
LINE
  5
E4
330
1F
100
AcDbEntity
  8
0
  6
Continuous
 62
     7
370
    13
100
AcDbLine
 10
-311.0333392194298
 20
-16.80866124996828
 30
0.0
 11
-311.0333392194298
 21
-16.30863486036105
 31
0.0
  0
LINE
  5
E5
330
1F
100
AcDbEntity
  8
0
  6
Continuous
 62
     7
370
    13
100
AcDbLine
 10
-307.0333755423926
 20
-16.30863486036105
 30
0.0
 11
-310.0333359281794
 21
-16.30863486036105
 31
0.0
  0
LINE
  5
E6
330
1F
100
AcDbEntity
  8
0
  6
Continuous
 62
     7
370
    13
100
AcDbLine
 10
-311.0333392194298
 20
-16.30863486036105
 30
0.0
 11
-312.0333548826711
 21
-16.30863486036105
 31
0.0
  0
LINE
  5
E7
330
1F
100
AcDbEntity
  8
0
  6
Continuous
 62
     7
370
    13
100
AcDbLine
 10
-312.0333548826711
 20
-16.30863486036105
 30
0.0
 11
-312.0333548826711
 21
-15.80865795871796
 31
0.0
  0
LINE
  5
E8
330
1F
100
AcDbEntity
  8
0
  6
Continuous
 62
     7
370
    13
100
AcDbLine
 10
-311.533377981028
 20
-15.30868105707486
 30
0.0
 11
-307.0333755423926
 21
-15.30868105707486
 31
0.0
  0
LINE
  5
E9
330
1F
100
AcDbEntity
  8
0
  6
Continuous
 62
     7
370
    13
100
AcDbLine
 10
-310.0333359281794
 20
-17.30863815161138
 30
0.0
 11
-310.5333623177867
 21
-17.30863815161138
 31
0.0
  0
LINE
  5
EA
330
1F
100
AcDbEntity
  8
0
  6
Continuous
 62
     7
370
    13
100
AcDbLine
 10
-310.0333359281794
 20
-16.30863486036105
 30
0.0
 11
-310.0333359281794
 21
-17.30863815161138
 31
0.0
  0
LINE
  5
EB
330
1F
100
AcDbEntity
  8
0
  6
Continuous
 62
     7
370
    13
100
AcDbLine
 10
-296.0333764546122
 20
-17.35862099538645
 30
0.0
 11
-296.0333764546122
 21
-21.27861212238349
 31
0.0
  0
LINE
  5
EC
330
1F
100
AcDbEntity
  8
0
  6
Continuous
 62
     7
370
    13
100
AcDbLine
 10
-297.5333566475056
 20
-21.27861212238349
 30
0.0
 11
-297.5333566475056
 21
-17.35862099538645
 31
0.0
  0
LINE
  5
ED
330
1F
100
AcDbEntity
  8
0
  6
Continuous
 62
     7
370
    13
100
AcDbLine
 10
-296.0333764546122
 20
-21.27861212238349
 30
0.0
 11
-294.5333467737546
 21
-21.27861212238349
 31
0.0
  0
LINE
  5
EE
330
1F
100
AcDbEntity
  8
0
  6
Continuous
 62
     7
370
    13
100
AcDbLine
 10
-294.5333467737546
 20
-21.27861212238349
 30
0.0
 11
-294.5333467737546
 21
-20.35863086913741
 31
0.0
  0
LINE
  5
EF
330
1F
100
AcDbEntity
  8
0
  6
Continuous
 62
     7
370
    13
100
AcDbLine
 10
-294.5333467737546
 20
-20.35863086913741
 30
0.0
 11
-294.0333698721115
 21
-20.35863086913741
 31
0.0
  0
LINE
  5
F0
330
1F
100
AcDbEntity
  8
0
  6
Continuous
 62
     7
370
    13
100
AcDbLine
 10
-293.5333929704684
 20
-20.85860777078051
 30
0.0
 11
-293.5333929704684
 21
-23.30860841114918
 31
0.0
  0
LINE
  5
F1
330
1F
100
AcDbEntity
  8
0
  6
Continuous
 62
     7
370
    13
100
AcDbLine
 10
-296.5333533562552
 20
-16.35861770413612
 30
0.0
 11
-294.5333467737546
 21
-16.35861770413612
 31
0.0
  0
LINE
  5
F2
330
1F
100
AcDbEntity
  8
0
  6
Continuous
 62
     7
370
    13
100
AcDbLine
 10
-293.5333929704684
 20
-17.35862099538645
 30
0.0
 11
-293.5333929704684
 21
-17.85864738499367
 31
0.0
  0
LINE
  5
F3
330
1F
100
AcDbEntity
  8
0
  6
Continuous
 62
     7
370
    13
100
AcDbLine
 10
-294.0333698721115
 20
-18.35862428663677
 30
0.0
 11
-294.5333467737546
 21
-18.35862428663677
 31
0.0
  0
LINE
  5
F4
330
1F
100
AcDbEntity
  8
0
  6
Continuous
 62
     7
370
    13
100
AcDbLine
 10
-294.5333467737546
 20
-18.35862428663677
 30
0.0
 11
-294.5333467737546
 21
-17.35862099538645
 31
0.0
  0
LINE
  5
F5
330
1F
100
AcDbEntity
  8
0
  6
Continuous
 62
     7
370
    13
100
AcDbLine
 10
-294.5333467737546
 20
-17.35862099538645
 30
0.0
 11
-296.0333764546122
 21
-17.35862099538645
 31
0.0
  0
LINE
  5
F6
330
1F
100
AcDbEntity
  8
0
  6
Continuous
 62
     7
370
    13
100
AcDbLine
 10
-299.033336840399
 20
-7.808606884733308
 30
0.0
 11
-299.033336840399
 21
-8.808610175983631
 31
0.0
  0
LINE
  5
F7
330
1F
100
AcDbEntity
  8
0
  6
Continuous
 62
     7
370
    13
100
AcDbLine
 10
-299.5333632300062
 20
-9.308587077626726
 30
0.0
 11
-305.003391625618
 21
-9.308587077626726
 31
0.0
  0
LINE
  5
F8
330
1F
100
AcDbEntity
  8
0
  6
Continuous
 62
     7
370
    13
100
AcDbLine
 10
-332.5333728653386
 20
119.2413980441197
 30
0.0
 11
-311.0333392194298
 21
119.2413980441197
 31
0.0
  0
LINE
  5
F9
330
1F
100
AcDbEntity
  8
0
  6
Continuous
 62
     7
370
    13
100
AcDbLine
 10
-313.0333581739214
 20
123.4913749159605
 30
0.0
 11
-311.0333392194298
 21
123.4913749159605
 31
0.0
  0
LINE
  5
FA
330
1F
100
AcDbEntity
  8
0
  6
Continuous
 62
     7
370
    13
100
AcDbLine
 10
-315.0333647564221
 20
121.6913986844884
 30
0.0
 11
-311.0333392194298
 21
121.6913986844884
 31
0.0
  0
LINE
  5
FB
330
1F
100
AcDbEntity
  8
0
  6
Continuous
 62
     7
370
    13
100
AcDbLine
 10
-333.0033724327077
 20
121.2713943328854
 30
0.0
 11
-323.4102481192986
 21
121.2713943328854
 31
0.0
  0
LINE
  5
FC
330
1F
100
AcDbEntity
  8
0
  6
Continuous
 62
     7
370
    13
100
AcDbLine
 10
-332.3333548863011
 20
124.6913590702752
 30
0.0
 11
-335.0333563494823
 21
124.6913590702752
 31
0.0
  0
LINE
  5
FD
330
1F
100
AcDbEntity
  8
0
  6
Continuous
 62
     7
370
    13
100
AcDbLine
 10
-333.0033724327077
 20
123.2913445649319
 30
0.0
 11
-332.120544268535
 21
124.1799504489172
 31
0.0
  0
LINE
  5
FE
330
1F
100
AcDbEntity
  8
0
  6
Continuous
 62
     7
370
    13
100
AcDbLine
 10
-333.0033724327077
 20
121.2713943328854
 30
0.0
 11
-333.0033724327077
 21
123.2913445649319
 31
0.0
  0
LINE
  5
FF
330
1F
100
AcDbEntity
  8
0
  6
Continuous
 62
     7
370
    13
100
AcDbLine
 10
-321.405082416537
 20
124.6913590702752
 30
0.0
 11
-322.0333444932057
 21
124.6913590702752
 31
0.0
  0
LINE
  5
100
330
1F
100
AcDbEntity
  8
0
  6
Continuous
 62
     7
370
    13
100
AcDbLine
 10
-315.0333647564221
 20
121.2713943328854
 30
0.0
 11
-315.0333647564221
 21
121.6913986844884
 31
0.0
  0
LINE
  5
101
330
1F
100
AcDbEntity
  8
0
  6
Continuous
 62
     7
370
    13
100
AcDbLine
 10
-316.6564648180847
 20
121.2713943328854
 30
0.0
 11
-315.0333647564221
 21
121.2713943328854
 31
0.0
  0
LINE
  5
102
330
1F
100
AcDbEntity
  8
0
  6
Continuous
 62
     7
370
    13
100
AcDbLine
 10
-318.0333684441775
 20
124.6913590702752
 30
0.0
 11
-318.6616305208463
 21
124.6913590702752
 31
0.0
  0
LINE
  5
103
330
1F
100
AcDbEntity
  8
0
  6
Continuous
 62
     7
370
    13
100
AcDbLine
 10
-313.0333581739214
 20
124.191332680668
 30
0.0
 11
-313.0333581739214
 21
123.4913749159605
 31
0.0
  0
LINE
  5
104
330
1F
100
AcDbEntity
  8
0
  6
Continuous
 62
     7
370
    13
100
AcDbLine
 10
-285.0033505445936
 20
144.6613362130884
 30
0.0
 11
-254.063364020265
 21
144.6613362130884
 31
0.0
  0
LINE
  5
105
330
1F
100
AcDbEntity
  8
0
  6
Continuous
 62
     7
370
    13
100
AcDbLine
 10
-290.5333707247264
 20
146.691332501854
 30
0.0
 11
-235.0333365242259
 21
146.691332501854
 31
0.0
  0
LINE
  5
106
330
1F
100
AcDbEntity
  8
0
  6
Continuous
 62
     7
370
    13
100
AcDbLine
 10
-285.0033505445936
 20
144.6613362130884
 30
0.0
 11
-285.0033505445936
 21
124.6613693640102
 31
0.0
  0
LINE
  5
107
330
1F
100
AcDbEntity
  8
0
  6
Continuous
 62
     7
370
    13
100
AcDbLine
 10
-287.0333839493323
 20
138.6914051477797
 30
0.0
 11
-287.0333839493323
 21
124.6913590702752
 31
0.0
  0
LINE
  5
108
330
1F
100
AcDbEntity
  8
0
  6
Continuous
 62
     7
370
    13
100
AcDbLine
 10
-287.0033571270942
 20
122.6613627815095
 30
0.0
 11
-296.3333848651819
 21
122.6613627815095
 31
0.0
  0
LINE
  5
109
330
1F
100
AcDbEntity
  8
0
  6
Continuous
 62
     7
370
    13
100
AcDbLine
 10
-287.0333839493323
 20
124.6913590702752
 30
0.0
 11
-299.575081583771
 21
124.6913590702752
 31
0.0
  0
LINE
  5
10A
330
1F
100
AcDbEntity
  8
0
  6
Continuous
 62
     7
370
    13
100
AcDbLine
 10
-300.4915986795277
 20
124.6913590702752
 30
0.0
 11
-312.5333812722783
 21
124.6913590702752
 31
0.0
  0
LINE
  5
10B
330
1F
100
AcDbEntity
  8
0
  6
Continuous
 62
     7
370
    13
100
AcDbLine
 10
-309.0033553026551
 20
121.2713943328854
 30
0.0
 11
-309.0033553026551
 21
122.6613627815095
 31
0.0
  0
LINE
  5
10C
330
1F
100
AcDbEntity
  8
0
  6
Continuous
 62
     7
370
    13
100
AcDbLine
 10
-311.0333392194298
 20
121.6913986844884
 30
0.0
 11
-311.0333392194298
 21
123.4913749159605
 31
0.0
  0
LINE
  5
10D
330
1F
100
AcDbEntity
  8
0
  6
Continuous
 62
     7
370
    13
100
AcDbLine
 10
-287.0333839493323
 20
144.961332251667
 30
0.0
 11
-287.0333839493323
 21
139.6913589510659
 31
0.0
  0
LINE
  5
10E
330
1F
100
AcDbEntity
  8
0
  6
Continuous
 62
     7
370
    13
100
AcDbLine
 10
-290.0333443351192
 20
143.6914216040313
 30
0.0
 11
-290.0333443351192
 21
144.961332251667
 31
0.0
  0
LINE
  5
10F
330
1F
100
AcDbEntity
  8
0
  6
Continuous
 62
     7
370
    13
100
AcDbLine
 10
-291.0333476263695
 20
144.1913985056744
 30
0.0
 11
-291.0333476263695
 21
146.1913061122468
 31
0.0
  0
LINE
  5
110
330
1F
100
AcDbEntity
  8
0
  6
Continuous
 62
     7
370
    13
100
AcDbLine
 10
-290.5333707247264
 20
143.6914216040313
 30
0.0
 11
-290.0333443351192
 21
143.6914216040313
 31
0.0
  0
LINE
  5
111
330
1F
100
AcDbEntity
  8
0
  6
Continuous
 62
     7
370
    13
100
AcDbLine
 10
-292.0333509176198
 20
139.6913589510659
 30
0.0
 11
-292.0333509176198
 21
139.1913325614587
 31
0.0
  0
LINE
  5
112
330
1F
100
AcDbEntity
  8
0
  6
Continuous
 62
     7
370
    13
100
AcDbLine
 10
-290.0333443351192
 20
140.6914117302804
 30
0.0
 11
-290.5333707247264
 21
140.6914117302804
 31
0.0
  0
LINE
  5
113
330
1F
100
AcDbEntity
  8
0
  6
Continuous
 62
     7
370
    13
100
AcDbLine
 10
-290.0333443351192
 20
139.6913589510659
 30
0.0
 11
-290.0333443351192
 21
140.6914117302804
 31
0.0
  0
LINE
  5
114
330
1F
100
AcDbEntity
  8
0
  6
Continuous
 62
     7
370
    13
100
AcDbLine
 10
-291.0333476263695
 20
140.1913853406732
 30
0.0
 11
-291.0333476263695
 21
139.6913589510659
 31
0.0
  0
LINE
  5
115
330
1F
100
AcDbEntity
  8
0
  6
Continuous
 62
     7
370
    13
100
AcDbLine
 10
-291.0333476263695
 20
139.6913589510659
 30
0.0
 11
-292.0333509176198
 21
139.6913589510659
 31
0.0
  0
LINE
  5
116
330
1F
100
AcDbEntity
  8
0
  6
Continuous
 62
     7
370
    13
100
AcDbLine
 10
-287.0333839493323
 20
139.6913589510659
 30
0.0
 11
-290.0333443351192
 21
139.6913589510659
 31
0.0
  0
LINE
  5
117
330
1F
100
AcDbEntity
  8
0
  6
Continuous
 62
     7
370
    13
100
AcDbLine
 10
-291.5333740159767
 20
138.6914051477797
 30
0.0
 11
-287.0333839493323
 21
138.6914051477797
 31
0.0
  0
LINE
  5
118
330
1F
100
AcDbEntity
  8
0
  6
Continuous
 62
     7
370
    13
100
AcDbLine
 10
-290.0333443351192
 20
144.961332251667
 30
0.0
 11
-287.0333839493323
 21
144.961332251667
 31
0.0
  0
LINE
  5
119
330
1F
100
AcDbEntity
  8
0
  6
Continuous
 62
     7
370
    13
100
AcDbLine
 10
-254.063364020265
 20
135.6913457860646
 30
0.0
 11
-254.063364020265
 21
144.6613362130884
 31
0.0
  0
LINE
  5
11A
330
1F
100
AcDbEntity
  8
0
  6
Continuous
 62
     7
370
    13
100
AcDbLine
 10
-252.0333182435352
 20
135.6913457860646
 30
0.0
 11
-252.0333182435352
 21
140.6914117302804
 31
0.0
  0
LINE
  5
11B
330
1F
100
AcDbEntity
  8
0
  6
Continuous
 62
     7
370
    13
100
AcDbLine
 10
-238.933384001677
 20
123.691405266989
 30
0.0
 11
-238.933384001677
 21
119.6913921019877
 31
0.0
  0
LINE
  5
11C
330
1F
100
AcDbEntity
  8
0
  6
Continuous
 62
     7
370
    13
100
AcDbLine
 10
-240.9633555464607
 20
116.1913805826116
 30
0.0
 11
-240.9633555464607
 21
124.7213487765403
 31
0.0
  0
LINE
  5
11D
330
1F
100
AcDbEntity
  8
0
  6
Continuous
 62
     7
370
    13
100
AcDbLine
 10
-240.4633291568534
 20
115.6914036809685
 30
0.0
 11
-239.4333609033201
 21
115.6914036809685
 31
0.0
  0
LINE
  5
11E
330
1F
100
AcDbEntity
  8
0
  6
Continuous
 62
     7
370
    13
100
AcDbLine
 10
-238.933384001677
 20
118.6913393227733
 30
0.0
 11
-238.933384001677
 21
116.1913805826116
 31
0.0
  0
LINE
  5
11F
330
1F
100
AcDbEntity
  8
0
  6
Continuous
 62
     7
370
    13
100
AcDbLine
 10
-252.8211171445801
 20
133.820502789953
 30
0.0
 11
-243.321085877702
 21
129.8204896249517
 31
0.0
  0
LINE
  5
120
330
1F
100
AcDbEntity
  8
0
  6
Continuous
 62
     7
370
    13
100
AcDbLine
 10
-252.0333182435352
 20
135.6913457860646
 30
0.0
 11
-242.5333612086033
 21
131.6913326210633
 31
0.0
  0
LINE
  5
121
330
1F
100
AcDbEntity
  8
0
  6
Continuous
 62
     7
370
    13
100
AcDbLine
 10
-237.1333335382587
 20
132.1913590106706
 30
0.0
 11
-237.1333335382587
 21
128.1913458456693
 31
0.0
  0
LINE
  5
122
330
1F
100
AcDbEntity
  8
0
  6
Continuous
 62
     7
370
    13
100
AcDbLine
 10
-239.1633793149886
 20
129.6613363322977
 30
0.0
 11
-239.1633793149886
 21
125.7214015557547
 31
0.0
  0
LINE
  5
123
330
1F
100
AcDbEntity
  8
0
  6
Continuous
 62
     7
370
    13
100
AcDbLine
 10
-238.1333368295091
 20
123.691405266989
 30
0.0
 11
-238.933384001677
 21
123.691405266989
 31
0.0
  0
LINE
  5
124
330
1F
100
AcDbEntity
  8
0
  6
Continuous
 62
     7
370
    13
100
AcDbLine
 10
-239.9633522552103
 20
125.7214015557547
 30
0.0
 11
-239.1633793149886
 21
125.7214015557547
 31
0.0
  0
LINE
  5
125
330
1F
100
AcDbEntity
  8
0
  6
Continuous
 62
     7
370
    13
100
AcDbLine
 10
-237.1333335382587
 20
127.1913920423831
 30
0.0
 11
-237.1333335382587
 21
124.6913590702752
 31
0.0
  0
LINE
  5
126
330
1F
100
AcDbEntity
  8
0
  6
Continuous
 62
     7
370
    13
100
AcDbLine
 10
-238.1333368295091
 20
133.1913128139568
 30
0.0
 11
-237.1333335382587
 21
132.1913590106706
 31
0.0
  0
LINE
  5
127
330
1F
100
AcDbEntity
  8
0
  6
Continuous
 62
     7
370
    13
100
AcDbLine
 10
-238.1333368295091
 20
133.1913128139568
 30
0.0
 11
-238.933384001677
 21
133.1913128139568
 31
0.0
  0
LINE
  5
128
330
1F
100
AcDbEntity
  8
0
  6
Continuous
 62
     7
370
    13
100
AcDbLine
 10
-238.933384001677
 20
133.1913128139568
 30
0.0
 11
-238.933384001677
 21
131.6913326210633
 31
0.0
  0
LINE
  5
129
330
1F
100
AcDbEntity
  8
0
  6
Continuous
 62
     7
370
    13
100
AcDbLine
 10
-242.5333612086033
 20
131.6913326210633
 30
0.0
 11
-238.933384001677
 21
131.6913326210633
 31
0.0
  0
LINE
  5
12A
330
1F
100
AcDbEntity
  8
0
  6
Continuous
 62
     7
370
    13
100
AcDbLine
 10
-242.5333612086033
 20
129.6613363322977
 30
0.0
 11
-239.1633793149886
 21
129.6613363322977
 31
0.0
  0
LINE
  5
12B
330
1F
100
AcDbEntity
  8
0
  6
Continuous
 62
     7
370
    13
100
AcDbLine
 10
-246.8570009150571
 20
144.6613362130884
 30
0.0
 11
-237.0633823009557
 21
144.6613362130884
 31
0.0
  0
LINE
  5
12C
330
1F
100
AcDbEntity
  8
0
  6
Continuous
 62
     7
370
    13
100
AcDbLine
 10
-252.0333182435352
 20
140.6914117302804
 30
0.0
 11
-251.4050685388574
 21
140.6914117302804
 31
0.0
  0
LINE
  5
12D
330
1F
100
AcDbEntity
  8
0
  6
Continuous
 62
     7
370
    13
100
AcDbLine
 10
-248.6616537591399
 20
140.6914117302804
 30
0.0
 11
-248.033354566498
 21
140.6914117302804
 31
0.0
  0
LINE
  5
12E
330
1F
100
AcDbEntity
  8
0
  6
Continuous
 62
     7
370
    13
100
AcDbLine
 10
-235.0333365242259
 20
140.6914117302804
 30
0.0
 11
-235.0333365242259
 21
146.691332501854
 31
0.0
  0
LINE
  5
12F
330
1F
100
AcDbEntity
  8
0
  6
Continuous
 62
     7
370
    13
100
AcDbLine
 10
-237.0633823009557
 20
141.6913655335666
 30
0.0
 11
-236.0333398154762
 21
140.6914117302804
 31
0.0
  0
LINE
  5
130
330
1F
100
AcDbEntity
  8
0
  6
Continuous
 62
     7
370
    13
100
AcDbLine
 10
-237.0633823009557
 20
141.6913655335666
 30
0.0
 11
-237.0633823009557
 21
144.6613362130884
 31
0.0
  0
LINE
  5
131
330
1F
100
AcDbEntity
  8
0
  6
Continuous
 62
     7
370
    13
100
AcDbLine
 10
-236.0333398154762
 20
140.6914117302804
 30
0.0
 11
-235.0333365242259
 21
140.6914117302804
 31
0.0
  0
LINE
  5
132
330
1F
100
AcDbEntity
  8
0
  6
Continuous
 62
     7
370
    13
100
AcDbLine
 10
-333.3033808432774
 20
-16.30863486036105
 30
0.0
 11
-328.0333704267032
 21
-16.30863486036105
 31
0.0
  0
LINE
  5
133
330
1F
100
AcDbEntity
  8
0
  6
Continuous
 62
     7
370
    13
100
AcDbLine
 10
-328.0333704267032
 20
-16.30863486036105
 30
0.0
 11
-328.0333704267032
 21
-15.80865795871796
 31
0.0
  0
LINE
  5
134
330
1F
100
AcDbEntity
  8
0
  6
Continuous
 62
     7
370
    13
100
AcDbLine
 10
-328.5333473283463
 20
-15.30868105707486
 30
0.0
 11
-333.3033808432774
 21
-15.30868105707486
 31
0.0
  0
LINE
  5
135
330
1F
100
AcDbEntity
  8
0
  6
Continuous
 62
     7
370
    13
100
AcDbLine
 10
-332.5333728653386
 20
-7.808606884733308
 30
0.0
 11
-332.5333728653386
 21
119.2413980441197
 31
0.0
  0
LINE
  5
136
330
1F
100
AcDbEntity
  8
0
  6
Continuous
 62
     7
370
    13
100
AcDbLine
 10
-333.3033808432774
 20
-9.83865266146313
 30
0.0
 11
-323.3962801414218
 21
-9.83865266146313
 31
0.0
  0
LINE
  5
137
330
1F
100
AcDbEntity
  8
0
  6
Continuous
 62
     7
370
    13
100
AcDbLine
 10
-297.5333566475056
 20
119.7913577895379
 30
0.0
 11
-297.5333566475056
 21
122.6613627815095
 31
0.0
  0
LINE
  5
138
330
1F
100
AcDbEntity
  8
0
  6
Continuous
 62
     7
370
    13
100
AcDbLine
 10
-296.3333848651819
 20
122.6613627815095
 30
0.0
 11
-296.3333848651819
 21
119.7913577895379
 31
0.0
  0
LINE
  5
139
330
1F
100
AcDbEntity
  8
0
  6
Continuous
 62
     7
370
    13
100
AcDbLine
 10
-297.5333566475056
 20
122.6613627815095
 30
0.0
 11
-309.0033553026551
 21
122.6613627815095
 31
0.0
  0
LINE
  5
13A
330
1F
100
AcDbEntity
  8
0
  6
Continuous
 62
     7
370
    13
100
AcDbLine
 10
-294.0333698721115
 20
124.6913590702752
 30
0.0
 11
-299.575081583771
 21
124.6913590702752
 31
0.0
  0
LINE
  5
13B
330
1F
100
AcDbEntity
  8
0
  6
Continuous
 62
     7
370
    13
100
AcDbLine
 10
-300.4915986795277
 20
124.6913590702752
 30
0.0
 11
-306.0333722511423
 21
124.6913590702752
 31
0.0
  0
LINE
  5
13C
330
1F
100
AcDbEntity
  8
0
  6
Continuous
 62
     7
370
    13
100
AcDbLine
 10
-178.7957584502583
 20
146.691332501854
 30
0.0
 11
-224.0678676634197
 21
146.691332501854
 31
0.0
  0
LINE
  5
13D
330
1F
100
AcDbEntity
  8
0
  6
Continuous
 62
     7
370
    13
100
AcDbLine
 10
-335.0333563494823
 20
-65.63769314125966
 30
0.0
 11
-335.0333563494823
 21
-38.26077817460464
 31
0.0
  0
LINE
  5
13E
330
1F
100
AcDbEntity
  8
0
  6
Continuous
 62
     7
370
    13
100
AcDbLine
 10
-235.0333365242259
 20
-65.63769314125966
 30
0.0
 11
-235.0333365242259
 21
-36.82082688220544
 31
0.0
  0
LINE
  5
13F
330
1F
100
AcDbEntity
  8
0
  6
Continuous
 62
     7
370
    13
100
AcDbLine
 10
-180.7833188097793
 20
-23.30860841114918
 30
0.0
 11
-180.7833188097793
 21
146.691332501854
 31
0.0
  0
LINE
  5
140
330
1F
100
AcDbEntity
  8
0
  6
Continuous
 62
     7
370
    13
100
AcDbLine
 10
-180.7833188097793
 20
-23.30860841114918
 30
0.0
 11
-223.8142913351985
 21
-23.30860841114918
 31
0.0
  0
LINE
  5
141
330
1F
100
AcDbEntity
  8
0
  6
Continuous
 62
     7
370
    13
100
AcDbLine
 10
-180.7833188097793
 20
146.691332501854
 30
0.0
 11
-223.8142913351985
 21
146.691332501854
 31
0.0
  0
LINE
  5
142
330
1F
100
AcDbEntity
  8
0
  6
Continuous
 62
     7
370
    13
100
AcDbLine
 10
-335.0333563494823
 20
-67.48673668917036
 30
0.0
 11
-235.0333365242259
 21
-67.48673668917036
 31
0.0
  0
LINE
  5
143
330
1F
100
AcDbEntity
  8
0
  6
Continuous
 62
     7
370
    13
100
AcDbLine
 10
-335.0333563494823
 20
-67.48673668917036
 30
0.0
 11
-335.0333563494823
 21
-34.3170328248234
 31
0.0
  0
LINE
  5
144
330
1F
100
AcDbEntity
  8
0
  6
Continuous
 62
     7
370
    13
100
AcDbLine
 10
-235.0333365242259
 20
-67.48673668917036
 30
0.0
 11
-235.0333365242259
 21
-34.3170328248234
 31
0.0
  0
LINE
  5
145
330
1F
100
AcDbEntity
  8
0
  6
Continuous
 62
     7
370
    13
100
AcDbLine
 10
-201.4023553461884
 20
-23.30860841114918
 30
0.0
 11
-201.4023553461884
 21
57.19133486273495
 31
0.0
  0
LINE
  5
146
330
1F
100
AcDbEntity
  8
0
  6
Continuous
 62
     7
370
    13
100
AcDbLine
 10
-201.4023553461884
 20
-23.30860841114918
 30
0.0
 11
-224.710741061499
 21
-23.30860841114918
 31
0.0
  0
LINE
  5
147
330
1F
100
AcDbEntity
  8
0
  6
Continuous
 62
     7
370
    13
100
AcDbLine
 10
-201.4023553461884
 20
57.19133486273495
 30
0.0
 11
-224.710741061499
 21
57.19133486273495
 31
0.0
  0
LINE
  5
148
330
1F
100
AcDbEntity
  8
0
  6
Continuous
 62
     7
370
    13
100
AcDbLine
 10
-217.9074079361963
 20
15.69137148372101
 30
0.0
 11
-217.9074079361963
 21
98.69137247369508
 31
0.0
  0
LINE
  5
149
330
1F
100
AcDbEntity
  8
0
  6
Continuous
 62
     7
370
    13
100
AcDbLine
 10
-217.9074079361963
 20
15.69137148372101
 30
0.0
 11
-228.1738098156493
 21
15.69137148372101
 31
0.0
  0
LINE
  5
14A
330
1F
100
AcDbEntity
  8
0
  6
Continuous
 62
     7
370
    13
100
AcDbLine
 10
-217.9074079361963
 20
98.69137247369508
 30
0.0
 11
-228.1738098156493
 21
98.69137247369508
 31
0.0
  0
LINE
  5
14B
330
1F
100
AcDbEntity
  8
0
  6
Continuous
 62
     7
370
    13
100
AcDbLine
 10
-255.0333281172861
 20
-47.76419936702587
 30
0.0
 11
-235.0333365242259
 21
-47.76419936702587
 31
0.0
  0
LINE
  5
14C
330
1F
100
AcDbEntity
  8
0
  6
Continuous
 62
     7
370
    13
100
AcDbLine
 10
-235.0333365242259
 20
-47.76419936702587
 30
0.0
 11
-235.0333365242259
 21
-32.52408388425829
 31
0.0
  0
LINE
  5
14D
330
1F
100
AcDbEntity
  8
0
  6
Continuous
 62
     7
370
    13
100
AcDbLine
 10
-268.9273709756162
 20
70.59069603158423
 30
0.0
 11
-249.6089028806236
 21
75.7670628480264
 31
0.0
  0
LINE
  5
14E
330
1F
100
AcDbEntity
  8
0
  6
Continuous
 62
     7
370
    13
100
AcDbLine
 10
-270.5563168030421
 20
109.380698494635
 30
0.0
 11
-261.862976467517
 21
111.7100474784456
 31
0.0
  0
LINE
  5
14F
330
1F
100
AcDbEntity
  8
0
  6
Continuous
 62
     7
370
    13
100
AcDbLine
 10
-270.5563168030421
 20
109.380698494635
 30
0.0
 11
-268.2462928692257
 21
100.7596477027182
 31
0.0
  0
LINE
  5
150
330
1F
100
AcDbEntity
  8
0
  6
Continuous
 62
     7
370
    13
100
AcDbLine
 10
-261.862976467517
 20
111.7100474784456
 30
0.0
 11
-259.5530020216647
 21
103.089046174493
 31
0.0
  0
LINE
  5
151
330
1F
100
AcDbEntity
  8
0
  6
Continuous
 62
     7
370
    13
100
AcDbLine
 10
-268.9273709756162
 20
70.59069603158423
 30
0.0
 11
-266.1325753171368
 21
60.16034052695613
 31
0.0
  0
LINE
  5
152
330
1F
100
AcDbEntity
  8
0
  6
Continuous
 62
     7
370
    13
100
AcDbLine
 10
-249.6089028806236
 20
75.7670628480264
 30
0.0
 11
-246.4216800385548
 21
63.87243271662737
 31
0.0
  0
LINE
  5
153
330
1F
100
AcDbEntity
  8
0
  6
Continuous
 62
     7
370
    13
100
AcDbLine
 10
-335.0333563494823
 20
-23.30860841114918
 30
0.0
 11
-335.0333563494823
 21
124.6913590702752
 31
0.0
  0
LINE
  5
154
330
1F
100
AcDbEntity
  8
0
  6
Continuous
 62
     7
370
    13
100
AcDbLine
 10
-270.5563168030421
 20
109.380698494635
 30
0.0
 11
-270.4964239944493
 21
109.4474825022335
 31
0.0
  0
LINE
  5
155
330
1F
100
AcDbEntity
  8
0
  6
Continuous
 62
     7
370
    13
100
AcDbLine
 10
-261.862976467517
 20
111.7100474784456
 30
0.0
 11
-261.9048927731383
 21
111.8208510301411
 31
0.0
  0
LINE
  5
156
330
1F
100
AcDbEntity
  8
0
  6
Continuous
 62
     7
370
    13
100
AcDbLine
 10
-201.4023553461884
 20
57.19133486273495
 30
0.0
 11
-201.4023553461884
 21
146.691332501854
 31
0.0
  0
LINE
  5
157
330
1F
100
AcDbEntity
  8
0
  6
Continuous
 62
     7
370
    13
100
AcDbLine
 10
-201.4023553461884
 20
57.19133486273495
 30
0.0
 11
-223.8142913351985
 21
57.19133486273495
 31
0.0
  0
LINE
  5
158
330
1F
100
AcDbEntity
  8
0
  6
Continuous
 62
     7
370
    13
100
AcDbLine
 10
-201.4023553461884
 20
146.691332501854
 30
0.0
 11
-223.8142913351985
 21
146.691332501854
 31
0.0
  0
LINE
  5
159
330
1F
100
AcDbEntity
  8
0
  6
Continuous
 62
     7
370
    13
100
AcDbLine
 10
-255.0333281172861
 20
-47.76419936702587
 30
0.0
 11
-255.0333281172861
 21
2.709342316411494
 31
0.0
  0
LINE
  5
15A
330
1F
100
AcDbEntity
  8
0
  6
Continuous
 62
     7
370
    13
100
AcDbLine
 10
-255.0333281172861
 20
34.19583680065989
 30
0.0
 11
-255.0333281172861
 21
34.76534429191088
 31
0.0
  0
LINE
  5
15B
330
1F
100
AcDbEntity
  8
0
  6
Continuous
 62
     7
370
    13
100
AcDbLine
 10
-235.0333365242259
 20
-22.30865460786299
 30
0.0
 11
-235.0333365242259
 21
146.691332501854
 31
0.0
  0
LINE
  5
15C
330
1F
100
AcDbEntity
  8
0
  6
Continuous
 62
     7
370
    13
100
AcDbLine
 10
-53.56624251401081
 20
-7.308605239108147
 30
0.0
 11
-80.06625550019817
 21
-7.308605239108147
 31
0.0
  0
LINE
  5
15D
330
1F
100
AcDbEntity
  8
0
  6
Continuous
 62
     7
370
    13
100
AcDbLine
 10
-78.56625056332268
 20
120.191418491595
 30
0.0
 11
-44.86625841930072
 21
120.191418491595
 31
0.0
  0
LINE
  5
15E
330
1F
100
AcDbEntity
  8
0
  6
Continuous
 62
     7
370
    13
100
AcDbLine
 10
-82.06626208269881
 20
-23.30860841114918
 30
0.0
 11
-76.16625751071115
 21
-23.30860841114918
 31
0.0
  0
LINE
  5
15F
330
1F
100
AcDbEntity
  8
0
  6
Continuous
 62
     7
370
    13
100
AcDbLine
 10
-75.3662598265073
 20
-22.50861072694534
 30
0.0
 11
-75.3662598265073
 21
-21.70861304274149
 31
0.0
  0
LINE
  5
160
330
1F
100
AcDbEntity
  8
0
  6
Continuous
 62
     7
370
    13
100
AcDbLine
 10
-76.16625751071115
 20
-20.90861535853765
 30
0.0
 11
-76.36626311775763
 21
-20.90861535853765
 31
0.0
  0
LINE
  5
161
330
1F
100
AcDbEntity
  8
0
  6
Continuous
 62
     7
370
    13
100
AcDbLine
 10
-76.36626311775763
 20
-20.90861535853765
 30
0.0
 11
-76.36626311775763
 21
-21.10859622160206
 31
0.0
  0
LINE
  5
162
330
1F
100
AcDbEntity
  8
0
  6
Continuous
 62
     7
370
    13
100
AcDbLine
 10
-76.36626311775763
 20
-21.10859622160206
 30
0.0
 11
-78.96626177741564
 21
-21.10859622160206
 31
0.0
  0
LINE
  5
163
330
1F
100
AcDbEntity
  8
0
  6
Continuous
 62
     7
370
    13
100
AcDbLine
 10
-78.76625617036916
 20
-18.30861669887963
 30
0.0
 11
-76.36626311775763
 21
-18.30861669887963
 31
0.0
  0
LINE
  5
164
330
1F
100
AcDbEntity
  8
0
  6
Continuous
 62
     7
370
    13
100
AcDbLine
 10
-76.36626311775763
 20
-18.30861669887963
 30
0.0
 11
-76.36626311775763
 21
-18.50859756194404
 31
0.0
  0
LINE
  5
165
330
1F
100
AcDbEntity
  8
0
  6
Continuous
 62
     7
370
    13
100
AcDbLine
 10
-76.36626311775763
 20
-18.50859756194404
 30
0.0
 11
-76.16625751071115
 21
-18.50859756194404
 31
0.0
  0
LINE
  5
166
330
1F
100
AcDbEntity
  8
0
  6
Continuous
 62
     7
370
    13
100
AcDbLine
 10
-75.3662598265073
 20
-17.70862462172227
 30
0.0
 11
-75.3662598265073
 21
-17.60860944620799
 31
0.0
  0
LINE
  5
167
330
1F
100
AcDbEntity
  8
0
  6
Continuous
 62
     7
370
    13
100
AcDbLine
 10
-76.16625751071115
 20
-16.80861176200415
 30
0.0
 11
-79.06625220894784
 21
-16.80861176200415
 31
0.0
  0
LINE
  5
168
330
1F
100
AcDbEntity
  8
0
  6
Continuous
 62
     7
370
    13
100
AcDbLine
 10
-80.06625550019817
 20
-15.80860847075382
 30
0.0
 11
-80.06625550019817
 21
-10.80861675848428
 31
0.0
  0
LINE
  5
169
330
1F
100
AcDbEntity
  8
0
  6
Continuous
 62
     7
370
    13
100
AcDbLine
 10
-78.56625056332268
 20
-9.308611821608793
 30
0.0
 11
-58.00625316812511
 21
-9.308611821608793
 31
0.0
  0
LINE
  5
16A
330
1F
100
AcDbEntity
  8
0
  6
Continuous
 62
     7
370
    13
100
AcDbLine
 10
-56.66624281929398
 20
-11.60861444268812
 30
0.0
 11
-56.70625383829611
 21
-11.60861444268812
 31
0.0
  0
LINE
  5
16B
330
1F
100
AcDbEntity
  8
0
  6
Continuous
 62
     7
370
    13
100
AcDbLine
 10
-55.12625160739844
 20
-14.28861039636831
 30
0.0
 11
-55.14624474490847
 21
-14.32859667138837
 31
0.0
  0
LINE
  5
16C
330
1F
100
AcDbEntity
  8
0
  6
Continuous
 62
     7
370
    13
100
AcDbLine
 10
-39.36624031742394
 20
-23.30860841114918
 30
0.0
 11
-56.56625238776178
 21
-23.30860841114918
 31
0.0
  0
LINE
  5
16D
330
1F
100
AcDbEntity
  8
0
  6
Continuous
 62
     7
370
    13
100
AcDbLine
 10
-57.36625007196562
 20
-22.50861072694534
 30
0.0
 11
-57.36625007196562
 21
-21.70861304274149
 31
0.0
  0
LINE
  5
16E
330
1F
100
AcDbEntity
  8
0
  6
Continuous
 62
     7
370
    13
100
AcDbLine
 10
-56.56625238776178
 20
-20.90861535853765
 30
0.0
 11
-56.3662467807153
 21
-20.90861535853765
 31
0.0
  0
LINE
  5
16F
330
1F
100
AcDbEntity
  8
0
  6
Continuous
 62
     7
370
    13
100
AcDbLine
 10
-56.3662467807153
 20
-20.90861535853765
 30
0.0
 11
-56.3662467807153
 21
-21.10859622160206
 31
0.0
  0
LINE
  5
170
330
1F
100
AcDbEntity
  8
0
  6
Continuous
 62
     7
370
    13
100
AcDbLine
 10
-56.3662467807153
 20
-21.10859622160206
 30
0.0
 11
-53.96625372810377
 21
-21.10859622160206
 31
0.0
  0
LINE
  5
171
330
1F
100
AcDbEntity
  8
0
  6
Continuous
 62
     7
370
    13
100
AcDbLine
 10
-53.96625372810377
 20
-18.30861669887963
 30
0.0
 11
-56.3662467807153
 21
-18.30861669887963
 31
0.0
  0
LINE
  5
172
330
1F
100
AcDbEntity
  8
0
  6
Continuous
 62
     7
370
    13
100
AcDbLine
 10
-56.3662467807153
 20
-18.30861669887963
 30
0.0
 11
-56.3662467807153
 21
-18.50859756194404
 31
0.0
  0
LINE
  5
173
330
1F
100
AcDbEntity
  8
0
  6
Continuous
 62
     7
370
    13
100
AcDbLine
 10
-56.3662467807153
 20
-18.50859756194404
 30
0.0
 11
-56.56625238776178
 21
-18.50859756194404
 31
0.0
  0
LINE
  5
174
330
1F
100
AcDbEntity
  8
0
  6
Continuous
 62
     7
370
    13
100
AcDbLine
 10
-57.36625007196562
 20
-17.70862462172227
 30
0.0
 11
-57.36625007196562
 21
-17.60860944620799
 31
0.0
  0
LINE
  5
175
330
1F
100
AcDbEntity
  8
0
  6
Continuous
 62
     7
370
    13
100
AcDbLine
 10
-56.56625238776178
 20
-16.80861176200415
 30
0.0
 11
-54.10625517863809
 21
-16.80861176200415
 31
0.0
  0
LINE
  5
176
330
1F
100
AcDbEntity
  8
0
  6
Continuous
 62
     7
370
    13
100
AcDbLine
 10
-53.66625768952508
 20
-16.30861011637899
 30
0.0
 11
-53.66625768952508
 21
-16.36861427289114
 31
0.0
  0
LINE
  5
177
330
1F
100
AcDbEntity
  8
0
  6
Continuous
 62
     7
370
    13
100
AcDbLine
 10
-80.06625550019817
 20
-5.808600302232662
 30
0.0
 11
-80.06625550019817
 21
118.6913888107374
 31
0.0
  0
LINE
  5
178
330
1F
100
AcDbEntity
  8
0
  6
Continuous
 62
     7
370
    13
100
AcDbLine
 10
-40.06624757009558
 20
124.8913894213038
 30
0.0
 11
-20.7662384857249
 21
124.8913894213038
 31
0.0
  0
LINE
  5
179
330
1F
100
AcDbEntity
  8
0
  6
Continuous
 62
     7
370
    13
100
AcDbLine
 10
-16.96625567175215
 20
128.6913722352765
 30
0.0
 11
-16.96625567175215
 21
140.4913813792518
 31
0.0
  0
LINE
  5
17A
330
1F
100
AcDbEntity
  8
0
  6
Continuous
 62
     7
370
    13
100
AcDbLine
 10
-13.06625768226513
 20
138.5913899722655
 30
0.0
 11
-13.08625081977516
 21
138.5713968347554
 31
0.0
  0
LINE
  5
17B
330
1F
100
AcDbEntity
  8
0
  6
Continuous
 62
     7
370
    13
100
AcDbLine
 10
-10.06624780851416
 20
138.5913899722655
 30
0.0
 11
-10.04625467100414
 21
138.5713968347554
 31
0.0
  0
LINE
  5
17C
330
1F
100
AcDbEntity
  8
0
  6
Continuous
 62
     7
370
    13
100
AcDbLine
 10
1.133769258303801
 20
144.8913562703819
 30
0.0
 11
-8.406248283594323
 21
144.8913562703819
 31
0.0
  0
LINE
  5
17D
330
1F
100
AcDbEntity
  8
0
  6
Continuous
 62
     7
370
    13
100
AcDbLine
 10
2.633749451197218
 20
143.3913760774885
 30
0.0
 11
2.633749451197218
 21
134.9913880213571
 31
0.0
  0
LINE
  5
17E
330
1F
100
AcDbEntity
  8
0
  6
Continuous
 62
     7
370
    13
100
AcDbLine
 10
2.133772549554124
 20
134.4913616317499
 30
0.0
 11
1.933742198525579
 21
134.4913616317499
 31
0.0
  0
LINE
  5
17F
330
1F
100
AcDbEntity
  8
0
  6
Continuous
 62
     7
370
    13
100
AcDbLine
 10
-0.3662604225537507
 20
132.1913590106706
 30
0.0
 11
-0.3662604225537507
 21
127.6914184319903
 31
0.0
  0
LINE
  5
180
330
1F
100
AcDbEntity
  8
0
  6
Continuous
 62
     7
370
    13
100
AcDbLine
 10
1.933742198525579
 20
125.391415810911
 30
0.0
 11
5.433728973919642
 21
125.391415810911
 31
0.0
  0
LINE
  5
181
330
1F
100
AcDbEntity
  8
0
  6
Continuous
 62
     7
370
    13
100
AcDbLine
 10
6.433732265169965
 20
124.3913630316965
 30
0.0
 11
6.433732265169965
 21
123.8913861300534
 31
0.0
  0
LINE
  5
182
330
1F
100
AcDbEntity
  8
0
  6
Continuous
 62
     7
370
    13
100
AcDbLine
 10
9.733738177499617
 20
120.5913802177238
 30
0.0
 11
12.73374805125059
 21
120.5913802177238
 31
0.0
  0
LINE
  5
183
330
1F
100
AcDbEntity
  8
0
  6
Continuous
 62
     7
370
    13
100
AcDbLine
 10
13.23377444085781
 20
120.0913538281166
 30
0.0
 11
13.23377444085781
 21
119.0914000248304
 31
0.0
  0
LINE
  5
184
330
1F
100
AcDbEntity
  8
0
  6
Continuous
 62
     7
370
    13
100
AcDbLine
 10
14.233728244144
 20
119.0914000248304
 30
0.0
 11
14.233728244144
 21
120.8913762563025
 31
0.0
  0
LINE
  5
185
330
1F
100
AcDbEntity
  8
0
  6
Continuous
 62
     7
370
    13
100
AcDbLine
 10
11.21377472084714
 20
125.391415810911
 30
0.0
 11
12.73374805125059
 21
125.391415810911
 31
0.0
  0
LINE
  5
186
330
1F
100
AcDbEntity
  8
0
  6
Continuous
 62
     7
370
    13
100
AcDbLine
 10
13.23377444085781
 20
128.6913722352765
 30
0.0
 11
13.23377444085781
 21
127.6914184319903
 31
0.0
  0
LINE
  5
187
330
1F
100
AcDbEntity
  8
0
  6
Continuous
 62
     7
370
    13
100
AcDbLine
 10
12.73374805125059
 20
127.1913920423831
 30
0.0
 11
1.933742198525579
 21
127.1913920423831
 31
0.0
  0
LINE
  5
188
330
1F
100
AcDbEntity
  8
0
  6
Continuous
 62
     7
370
    13
100
AcDbLine
 10
1.433765296882484
 20
127.6914184319903
 30
0.0
 11
1.433765296882484
 21
132.1913590106706
 31
0.0
  0
LINE
  5
189
330
1F
100
AcDbEntity
  8
0
  6
Continuous
 62
     7
370
    13
100
AcDbLine
 10
1.933742198525579
 20
132.6913854002778
 30
0.0
 11
3.43377187938313
 21
132.6913854002778
 31
0.0
  0
LINE
  5
18A
330
1F
100
AcDbEntity
  8
0
  6
Continuous
 62
     7
370
    13
100
AcDbLine
 10
3.43377187938313
 20
132.6913854002778
 30
0.0
 11
3.43377187938313
 21
131.6913821090275
 31
0.0
  0
LINE
  5
18B
330
1F
100
AcDbEntity
  8
0
  6
Continuous
 62
     7
370
    13
100
AcDbLine
 10
4.433775170633453
 20
131.6913821090275
 30
0.0
 11
4.433775170633453
 21
143.3913760774885
 31
0.0
  0
LINE
  5
18C
330
1F
100
AcDbEntity
  8
0
  6
Continuous
 62
     7
370
    13
100
AcDbLine
 10
5.93375536352687
 20
144.8913562703819
 30
0.0
 11
13.13375926534354
 21
144.8913562703819
 31
0.0
  0
LINE
  5
18D
330
1F
100
AcDbEntity
  8
0
  6
Continuous
 62
     7
370
    13
100
AcDbLine
 10
14.63373945823696
 20
143.3913760774885
 30
0.0
 11
14.63373945823696
 21
140.6914117302804
 31
0.0
  0
LINE
  5
18E
330
1F
100
AcDbEntity
  8
0
  6
Continuous
 62
     7
370
    13
100
AcDbLine
 10
14.63373945823696
 20
140.6914117302804
 30
0.0
 11
14.43375859517255
 21
140.6914117302804
 31
0.0
  0
LINE
  5
18F
330
1F
100
AcDbEntity
  8
0
  6
Continuous
 62
     7
370
    13
100
AcDbLine
 10
14.43375859517255
 20
140.6914117302804
 30
0.0
 11
14.43375859517255
 21
137.1914249548863
 31
0.0
  0
LINE
  5
190
330
1F
100
AcDbEntity
  8
0
  6
Continuous
 62
     7
370
    13
100
AcDbLine
 10
14.93373549681564
 20
136.6913985652791
 30
0.0
 11
15.93373878806597
 21
136.6913985652791
 31
0.0
  0
LINE
  5
191
330
1F
100
AcDbEntity
  8
0
  6
Continuous
 62
     7
370
    13
100
AcDbLine
 10
16.43376517767319
 20
137.1914249548863
 30
0.0
 11
16.43376517767319
 21
146.3913859512395
 31
0.0
  0
LINE
  5
192
330
1F
100
AcDbEntity
  8
0
  6
Continuous
 62
     7
370
    13
100
AcDbLine
 10
16.13376913909451
 20
146.6913819898182
 30
0.0
 11
-22.76624506822554
 21
146.6913819898182
 31
0.0
  0
LINE
  5
193
330
1F
100
AcDbEntity
  8
0
  6
Continuous
 62
     7
370
    13
100
AcDbLine
 10
-23.56624275242939
 20
140.9914077688591
 30
0.0
 11
-23.56624275242939
 21
141.0913734564092
 31
0.0
  0
LINE
  5
194
330
1F
100
AcDbEntity
  8
0
  6
Continuous
 62
     7
370
    13
100
AcDbLine
 10
-22.76624506822554
 20
141.8913958845951
 30
0.0
 11
-22.56623946117907
 21
141.8913958845951
 31
0.0
  0
LINE
  5
195
330
1F
100
AcDbEntity
  8
0
  6
Continuous
 62
     7
370
    13
100
AcDbLine
 10
-22.56623946117907
 20
141.8913958845951
 30
0.0
 11
-22.56623946117907
 21
141.6913655335666
 31
0.0
  0
LINE
  5
196
330
1F
100
AcDbEntity
  8
0
  6
Continuous
 62
     7
370
    13
100
AcDbLine
 10
-22.56623946117907
 20
141.6913655335666
 30
0.0
 11
-20.16624640856753
 21
141.6913655335666
 31
0.0
  0
LINE
  5
197
330
1F
100
AcDbEntity
  8
0
  6
Continuous
 62
     7
370
    13
100
AcDbLine
 10
-20.16624640856753
 20
144.4913945442531
 30
0.0
 11
-22.56623946117907
 21
144.4913945442531
 31
0.0
  0
LINE
  5
198
330
1F
100
AcDbEntity
  8
0
  6
Continuous
 62
     7
370
    13
100
AcDbLine
 10
-22.56623946117907
 20
144.4913945442531
 30
0.0
 11
-22.56623946117907
 21
144.2914136811887
 31
0.0
  0
LINE
  5
199
330
1F
100
AcDbEntity
  8
0
  6
Continuous
 62
     7
370
    13
100
AcDbLine
 10
-22.56623946117907
 20
144.2914136811887
 30
0.0
 11
-22.76624506822554
 21
144.2914136811887
 31
0.0
  0
LINE
  5
19A
330
1F
100
AcDbEntity
  8
0
  6
Continuous
 62
     7
370
    13
100
AcDbLine
 10
-23.56624275242939
 20
145.0913866214105
 30
0.0
 11
-23.56624275242939
 21
145.8914090495964
 31
0.0
  0
LINE
  5
19B
330
1F
100
AcDbEntity
  8
0
  6
Continuous
 62
     7
370
    13
100
AcDbLine
 10
-22.76624506822554
 20
140.1913853406732
 30
0.0
 11
-19.76625993845664
 21
140.1913853406732
 31
0.0
  0
LINE
  5
19C
330
1F
100
AcDbEntity
  8
0
  6
Continuous
 62
     7
370
    13
100
AcDbLine
 10
-18.76625664720632
 20
139.1913820494228
 30
0.0
 11
-18.76625664720632
 21
128.6913722352765
 31
0.0
  0
LINE
  5
19D
330
1F
100
AcDbEntity
  8
0
  6
Continuous
 62
     7
370
    13
100
AcDbLine
 10
-20.7662384857249
 20
126.6913656527759
 30
0.0
 11
-41.56625250697107
 21
126.6913656527759
 31
0.0
  0
LINE
  5
19E
330
1F
100
AcDbEntity
  8
0
  6
Continuous
 62
     7
370
    13
100
AcDbLine
 10
-42.06625415259623
 20
127.1913920423831
 30
0.0
 11
-48.46623562622699
 21
127.1913920423831
 31
0.0
  0
LINE
  5
19F
330
1F
100
AcDbEntity
  8
0
  6
Continuous
 62
     7
370
    13
100
AcDbLine
 10
-48.46623562622699
 20
124.9913551088539
 30
0.0
 11
-44.86625841930072
 21
124.9913551088539
 31
0.0
  0
LINE
  5
1A0
330
1F
100
AcDbEntity
  8
0
  6
Continuous
 62
     7
370
    13
100
AcDbLine
 10
-44.86625841930072
 20
121.9913947230671
 30
0.0
 11
-58.94625230286329
 21
121.9913947230671
 31
0.0
  0
LINE
  5
1A1
330
1F
100
AcDbEntity
  8
0
  6
Continuous
 62
     7
370
    13
100
AcDbLine
 10
-64.5662539737823
 20
126.8913960038044
 30
0.0
 11
-64.58624711129232
 21
126.9113891413144
 31
0.0
  0
LINE
  5
1A2
330
1F
100
AcDbEntity
  8
0
  6
Continuous
 62
     7
370
    13
100
AcDbLine
 10
-67.18624577095034
 20
121.9913947230671
 30
0.0
 11
-80.46624197030906
 21
121.9913947230671
 31
0.0
  0
LINE
  5
1A3
330
1F
100
AcDbEntity
  8
0
  6
Continuous
 62
     7
370
    13
100
AcDbLine
 10
-79.06625220894784
 20
127.1913920423831
 30
0.0
 11
-81.76624130013806
 21
127.1913920423831
 31
0.0
  0
LINE
  5
1A4
330
1F
100
AcDbEntity
  8
0
  6
Continuous
 62
     7
370
    13
100
AcDbLine
 10
-79.06625220894784
 20
127.1913920423831
 30
0.0
 11
-80.46624197030906
 21
121.9913947230671
 31
0.0
  0
LINE
  5
1A5
330
1F
100
AcDbEntity
  8
0
  6
Continuous
 62
     7
370
    13
100
AcDbLine
 10
-82.06626208269881
 20
126.8913960038044
 30
0.0
 11
-82.06626208269881
 21
-23.30860841114918
 31
0.0
  0
LINE
  5
1A6
330
1F
100
AcDbEntity
  8
0
  6
Continuous
 62
     7
370
    13
100
AcDbLine
 10
14.43375859517255
 20
122.3913564491959
 30
0.0
 11
9.733738177499617
 21
122.3913564491959
 31
0.0
  0
LINE
  5
1A7
330
1F
100
AcDbEntity
  8
0
  6
Continuous
 62
     7
370
    13
100
AcDbLine
 10
14.43375859517255
 20
123.8913861300534
 30
0.0
 11
11.0137443698186
 21
123.8913861300534
 31
0.0
  0
LINE
  5
1A8
330
1F
100
AcDbEntity
  8
0
  6
Continuous
 62
     7
370
    13
100
AcDbLine
 10
14.43375859517255
 20
123.8913861300534
 30
0.0
 11
14.43375859517255
 21
126.8913960038044
 31
0.0
  0
LINE
  5
1A9
330
1F
100
AcDbEntity
  8
0
  6
Continuous
 62
     7
370
    13
100
AcDbLine
 10
14.43375859517255
 20
126.8913960038044
 30
0.0
 11
14.233728244144
 21
126.8913960038044
 31
0.0
  0
LINE
  5
1AA
330
1F
100
AcDbEntity
  8
0
  6
Continuous
 62
     7
370
    13
100
AcDbLine
 10
14.233728244144
 20
126.8913960038044
 30
0.0
 11
14.233728244144
 21
128.891402586305
 31
0.0
  0
LINE
  5
1AB
330
1F
100
AcDbEntity
  8
0
  6
Continuous
 62
     7
370
    13
100
AcDbLine
 10
14.233728244144
 20
128.891402586305
 30
0.0
 11
14.43375859517255
 21
128.891402586305
 31
0.0
  0
LINE
  5
1AC
330
1F
100
AcDbEntity
  8
0
  6
Continuous
 62
     7
370
    13
100
AcDbLine
 10
14.43375859517255
 20
128.891402586305
 30
0.0
 11
14.43375859517255
 21
133.0913966143708
 31
0.0
  0
LINE
  5
1AD
330
1F
100
AcDbEntity
  8
0
  6
Continuous
 62
     7
370
    13
100
AcDbLine
 10
10.97375809479854
 20
133.1113897518808
 30
0.0
 11
12.4337520126719
 21
135.6513595110446
 31
0.0
  0
LINE
  5
1AE
330
1F
100
AcDbEntity
  8
0
  6
Continuous
 62
     7
370
    13
100
AcDbLine
 10
12.4337520126719
 20
139.6913589510659
 30
0.0
 11
12.4337520126719
 21
135.6513595110446
 31
0.0
  0
LINE
  5
1AF
330
1F
100
AcDbEntity
  8
0
  6
Continuous
 62
     7
370
    13
100
AcDbLine
 10
11.83375993551454
 20
132.6314059877477
 30
0.0
 11
12.41375887516188
 21
133.6313597910339
 31
0.0
  0
LINE
  5
1B0
330
1F
100
AcDbEntity
  8
0
  6
Continuous
 62
     7
370
    13
100
AcDbLine
 10
12.933728914315
 20
140.1913853406732
 30
0.0
 11
13.73375134250091
 21
140.1913853406732
 31
0.0
  0
LINE
  5
1B1
330
1F
100
AcDbEntity
  8
0
  6
Continuous
 62
     7
370
    13
100
AcDbLine
 10
13.73375134250091
 20
138.7913708353299
 30
0.0
 11
13.73375134250091
 21
135.6913952740288
 31
0.0
  0
LINE
  5
1B2
330
1F
100
AcDbEntity
  8
0
  6
Continuous
 62
     7
370
    13
100
AcDbLine
 10
13.73375134250091
 20
135.6913952740288
 30
0.0
 11
13.93373220556532
 21
135.6913952740288
 31
0.0
  0
LINE
  5
1B3
330
1F
100
AcDbEntity
  8
0
  6
Continuous
 62
     7
370
    13
100
AcDbLine
 10
16.43376517767319
 20
133.191411789885
 30
0.0
 11
16.43376517767319
 21
-22.80860676552402
 31
0.0
  0
LINE
  5
1B4
330
1F
100
AcDbEntity
  8
0
  6
Continuous
 62
     7
370
    13
100
AcDbLine
 10
14.43375859517255
 20
-8.808610175983631
 30
0.0
 11
14.43375859517255
 21
122.3913564491959
 31
0.0
  0
LINE
  5
1B5
330
1F
100
AcDbEntity
  8
0
  6
Continuous
 62
     7
370
    13
100
AcDbLine
 10
-80.16624593173037
 20
-19.70860646024084
 30
0.0
 11
-80.16624593173037
 21
-19.90861206728732
 31
0.0
  0
LINE
  5
1B6
330
1F
100
AcDbEntity
  8
0
  6
Continuous
 62
     7
370
    13
100
AcDbLine
 10
-78.15624278047471
 20
145.3913826599892
 30
0.0
 11
-61.06624245440617
 21
145.3913826599892
 31
0.0
  0
LINE
  5
1B7
330
1F
100
AcDbEntity
  8
0
  6
Continuous
 62
     7
370
    13
100
AcDbLine
 10
-80.17624250048539
 20
129.5313809384825
 30
0.0
 11
-79.6562477173502
 21
143.9413853108708
 31
0.0
  0
LINE
  5
1B8
330
1F
100
AcDbEntity
  8
0
  6
Continuous
 62
     7
370
    13
100
AcDbLine
 10
-80.88624632191204
 20
146.2113982256851
 30
0.0
 11
-81.56626043707365
 21
127.1913920423831
 31
0.0
  0
LINE
  5
1B9
330
1F
100
AcDbEntity
  8
0
  6
Continuous
 62
     7
370
    13
100
AcDbLine
 10
-42.36625019117491
 20
146.6913819898182
 30
0.0
 11
-80.38624467628688
 21
146.6913819898182
 31
0.0
  0
LINE
  5
1BA
330
1F
100
AcDbEntity
  8
0
  6
Continuous
 62
     7
370
    13
100
AcDbLine
 10
-60.06623916315584
 20
145.3913826599892
 30
0.0
 11
-49.16624287889863
 21
145.3913826599892
 31
0.0
  0
LINE
  5
1BB
330
1F
100
AcDbEntity
  8
0
  6
Continuous
 62
     7
370
    13
100
AcDbLine
 10
-79.17623920923506
 20
128.4913913722121
 30
0.0
 11
-79.07624877770286
 21
128.4913913722121
 31
0.0
  0
LINE
  5
1BC
330
1F
100
AcDbEntity
  8
0
  6
Continuous
 62
     7
370
    13
100
AcDbLine
 10
-79.60624012959306
 20
125.1913854598824
 30
0.0
 11
-78.40625597527833
 21
124.8713962837937
 31
0.0
  0
LINE
  5
1BD
330
1F
100
AcDbEntity
  8
0
  6
Continuous
 62
     7
370
    13
100
AcDbLine
 10
-78.08624205520755
 20
125.8213672433048
 30
0.0
 11
-77.81626046687597
 21
126.8614062975394
 31
0.0
  0
LINE
  5
1BE
330
1F
100
AcDbEntity
  8
0
  6
Continuous
 62
     7
370
    13
100
AcDbLine
 10
-47.66623794202314
 20
143.8914024670958
 30
0.0
 11
-47.66623794202314
 21
134.7913576703286
 31
0.0
  0
LINE
  5
1BF
330
1F
100
AcDbEntity
  8
0
  6
Continuous
 62
     7
370
    13
100
AcDbLine
 10
-48.66624123327347
 20
133.7914038670424
 30
0.0
 11
-51.56623593151016
 21
133.7914038670424
 31
0.0
  0
LINE
  5
1C0
330
1F
100
AcDbEntity
  8
0
  6
Continuous
 62
     7
370
    13
100
AcDbLine
 10
-51.56623593151016
 20
132.4913550492493
 30
0.0
 11
-48.66624123327347
 21
132.4913550492493
 31
0.0
  0
LINE
  5
1C1
330
1F
100
AcDbEntity
  8
0
  6
Continuous
 62
     7
370
    13
100
AcDbLine
 10
-46.36623861219414
 20
134.7913576703286
 30
0.0
 11
-46.36623861219414
 21
139.1913820494228
 31
0.0
  0
LINE
  5
1C2
330
1F
100
AcDbEntity
  8
0
  6
Continuous
 62
     7
370
    13
100
AcDbLine
 10
-52.56623922276049
 20
124.9913551088539
 30
0.0
 11
-52.56623922276049
 21
131.4914012459631
 31
0.0
  0
LINE
  5
1C3
330
1F
100
AcDbEntity
  8
0
  6
Continuous
 62
     7
370
    13
100
AcDbLine
 10
-53.86623855258949
 20
131.4914012459631
 30
0.0
 11
-53.86623855258949
 21
124.9913551088539
 31
0.0
  0
LINE
  5
1C4
330
1F
100
AcDbEntity
  8
0
  6
Continuous
 62
     7
370
    13
100
AcDbLine
 10
-51.56623593151016
 20
122.6913524877746
 30
0.0
 11
-46.71624223852996
 21
122.6913524877746
 31
0.0
  0
LINE
  5
1C5
330
1F
100
AcDbEntity
  8
0
  6
Continuous
 62
     7
370
    13
100
AcDbLine
 10
-47.85624698031461
 20
123.9914013055677
 30
0.0
 11
-51.56623593151016
 21
123.9914013055677
 31
0.0
  0
LINE
  5
1C6
330
1F
100
AcDbEntity
  8
0
  6
Continuous
 62
     7
370
    13
100
AcDbLine
 10
-45.36626006492588
 20
140.1913853406732
 30
0.0
 11
-42.36625019117491
 21
140.1913853406732
 31
0.0
  0
LINE
  5
1C7
330
1F
100
AcDbEntity
  8
0
  6
Continuous
 62
     7
370
    13
100
AcDbLine
 10
-41.56625250697107
 20
140.9914077688591
 30
0.0
 11
-41.56625250697107
 21
141.0913734564092
 31
0.0
  0
LINE
  5
1C8
330
1F
100
AcDbEntity
  8
0
  6
Continuous
 62
     7
370
    13
100
AcDbLine
 10
-42.36625019117491
 20
141.8913958845951
 30
0.0
 11
-42.56625579822139
 21
141.8913958845951
 31
0.0
  0
LINE
  5
1C9
330
1F
100
AcDbEntity
  8
0
  6
Continuous
 62
     7
370
    13
100
AcDbLine
 10
-42.56625579822139
 20
141.8913958845951
 30
0.0
 11
-42.56625579822139
 21
141.6913655335666
 31
0.0
  0
LINE
  5
1CA
330
1F
100
AcDbEntity
  8
0
  6
Continuous
 62
     7
370
    13
100
AcDbLine
 10
-42.56625579822139
 20
141.6913655335666
 30
0.0
 11
-44.96624885083293
 21
141.6913655335666
 31
0.0
  0
LINE
  5
1CB
330
1F
100
AcDbEntity
  8
0
  6
Continuous
 62
     7
370
    13
100
AcDbLine
 10
-44.96624885083293
 20
144.4913945442531
 30
0.0
 11
-42.56625579822139
 21
144.4913945442531
 31
0.0
  0
LINE
  5
1CC
330
1F
100
AcDbEntity
  8
0
  6
Continuous
 62
     7
370
    13
100
AcDbLine
 10
-42.56625579822139
 20
144.4913945442531
 30
0.0
 11
-42.56625579822139
 21
144.2914136811887
 31
0.0
  0
LINE
  5
1CD
330
1F
100
AcDbEntity
  8
0
  6
Continuous
 62
     7
370
    13
100
AcDbLine
 10
-42.56625579822139
 20
144.2914136811887
 30
0.0
 11
-42.36625019117491
 21
144.2914136811887
 31
0.0
  0
LINE
  5
1CE
330
1F
100
AcDbEntity
  8
0
  6
Continuous
 62
     7
370
    13
100
AcDbLine
 10
-41.56625250697107
 20
145.0913866214105
 30
0.0
 11
-41.56625250697107
 21
145.8914090495964
 31
0.0
  0
LINE
  5
1CF
330
1F
100
AcDbEntity
  8
0
  6
Continuous
 62
     7
370
    13
100
AcDbLine
 10
-82.56626372832397
 20
-68.75382652285043
 30
0.0
 11
-82.56626372832397
 21
-44.99715408443444
 31
0.0
  0
LINE
  5
1D0
330
1F
100
AcDbEntity
  8
0
  6
Continuous
 62
     7
370
    13
100
AcDbLine
 10
17.43376846892352
 20
-68.75382652285043
 30
0.0
 11
17.43376846892352
 21
-44.99715408443444
 31
0.0
  0
LINE
  5
1D1
330
1F
100
AcDbEntity
  8
0
  6
Continuous
 62
     7
370
    13
100
AcDbLine
 10
-82.56623898434191
 20
-61.13376878146664
 30
0.0
 11
17.43376846892352
 21
-61.13376878146664
 31
0.0
  0
LINE
  5
1D2
330
1F
100
AcDbEntity
  8
0
  6
Continuous
 62
     7
370
    13
100
AcDbLine
 10
-82.56623898434191
 20
-61.13376878146664
 30
0.0
 11
-82.56623898434191
 21
-39.17004528361576
 31
0.0
  0
LINE
  5
1D3
330
1F
100
AcDbEntity
  8
0
  6
Continuous
 62
     7
370
    13
100
AcDbLine
 10
70.28978446566907
 20
-23.30860841114918
 30
0.0
 11
70.28978446566907
 21
146.6913819898182
 31
0.0
  0
LINE
  5
1D4
330
1F
100
AcDbEntity
  8
0
  6
Continuous
 62
     7
370
    13
100
AcDbLine
 10
70.28978446566907
 20
146.6913819898182
 30
0.0
 11
30.84475930934423
 21
146.6913819898182
 31
0.0
  0
LINE
  5
1D5
330
1F
100
AcDbEntity
  8
0
  6
Continuous
 62
     7
370
    13
100
AcDbLine
 10
32.63770824990934
 20
16.19137312934618
 30
0.0
 11
32.63770824990934
 21
99.19139886330231
 31
0.0
  0
LINE
  5
1D6
330
1F
100
AcDbEntity
  8
0
  6
Continuous
 62
     7
370
    13
100
AcDbLine
 10
32.63770824990934
 20
99.19139886330231
 30
0.0
 11
11.12227147516387
 21
99.19139886330231
 31
0.0
  0
LINE
  5
1D7
330
1F
100
AcDbEntity
  8
0
  6
Continuous
 62
     7
370
    13
100
AcDbLine
 10
-82.56623898434191
 20
156.6913654143573
 30
0.0
 11
-82.56623898434191
 21
-65.61616587686149
 31
0.0
  0
LINE
  5
1D8
330
1F
100
AcDbEntity
  8
0
  6
Continuous
 62
     7
370
    13
100
AcDbLine
 10
17.43376846892352
 20
156.6913654143573
 30
0.0
 11
17.43376846892352
 21
-65.61616587686149
 31
0.0
  0
LINE
  5
1D9
330
1F
100
AcDbEntity
  8
0
  6
Continuous
 62
     7
370
    13
100
AcDbLine
 10
49.67082216120616
 20
57.69138599632424
 30
0.0
 11
49.67082216120616
 21
146.6913819898182
 31
0.0
  0
LINE
  5
1DA
330
1F
100
AcDbEntity
  8
0
  6
Continuous
 62
     7
370
    13
100
AcDbLine
 10
49.67082216120616
 20
146.6913819898182
 30
0.0
 11
25.51935948891332
 21
146.6913819898182
 31
0.0
  0
LINE
  5
1DB
330
1F
100
AcDbEntity
  8
0
  6
Continuous
 62
     7
370
    13
100
AcDbLine
 10
-39.06624427884526
 20
-23.0086123725705
 30
0.0
 11
-39.06624427884526
 21
-20.50860414444469
 31
0.0
  0
LINE
  5
1DC
330
1F
100
AcDbEntity
  8
0
  6
Continuous
 62
     7
370
    13
100
AcDbLine
 10
-40.06624757009558
 20
-20.50860414444469
 30
0.0
 11
-40.06624757009558
 21
-20.9686195150498
 31
0.0
  0
LINE
  5
1DD
330
1F
100
AcDbEntity
  8
0
  6
Continuous
 62
     7
370
    13
100
AcDbLine
 10
-41.06625086134591
 20
-20.9686195150498
 30
0.0
 11
-41.06625086134591
 21
-14.4685981219227
 31
0.0
  0
LINE
  5
1DE
330
1F
100
AcDbEntity
  8
0
  6
Continuous
 62
     7
370
    13
100
AcDbLine
 10
-40.06624757009558
 20
-14.4685981219227
 30
0.0
 11
-40.06624757009558
 21
-14.90859561103571
 31
0.0
  0
LINE
  5
1DF
330
1F
100
AcDbEntity
  8
0
  6
Continuous
 62
     7
370
    13
100
AcDbLine
 10
-39.06624427884526
 20
-14.90859561103571
 30
0.0
 11
-39.06624427884526
 21
-12.60861773393844
 31
0.0
  0
LINE
  5
1E0
330
1F
100
AcDbEntity
  8
0
  6
Continuous
 62
     7
370
    13
100
AcDbLine
 10
-39.56624592447042
 20
-12.10861608831328
 30
0.0
 11
-42.86625183680007
 21
-12.10861608831328
 31
0.0
  0
LINE
  5
1E1
330
1F
100
AcDbEntity
  8
0
  6
Continuous
 62
     7
370
    13
100
AcDbLine
 10
-42.86625183680007
 20
-15.02860392406001
 30
0.0
 11
-42.86625183680007
 21
-20.16862183084595
 31
0.0
  0
LINE
  5
1E2
330
1F
100
AcDbEntity
  8
0
  6
Continuous
 62
     7
370
    13
100
AcDbLine
 10
-44.36625677367556
 20
-21.66860202373937
 30
0.0
 11
-49.2662580544129
 21
-21.66860202373937
 31
0.0
  0
LINE
  5
1E3
330
1F
100
AcDbEntity
  8
0
  6
Continuous
 62
     7
370
    13
100
AcDbLine
 10
-50.76623824730632
 20
-20.16862183084595
 30
0.0
 11
-50.76623824730632
 21
-14.86860933601565
 31
0.0
  0
LINE
  5
1E4
330
1F
100
AcDbEntity
  8
0
  6
Continuous
 62
     7
370
    13
100
AcDbLine
 10
15.93373878806597
 20
-23.30860841114918
 30
0.0
 11
11.93377511102881
 21
-23.30860841114918
 31
0.0
  0
LINE
  5
1E5
330
1F
100
AcDbEntity
  8
0
  6
Continuous
 62
     7
370
    13
100
AcDbLine
 10
11.43374872142158
 20
-22.80860676552402
 30
0.0
 11
11.43374872142158
 21
-15.80860847075382
 31
0.0
  0
LINE
  5
1E6
330
1F
100
AcDbEntity
  8
0
  6
Continuous
 62
     7
370
    13
100
AcDbLine
 10
11.93377511102881
 20
-15.30860682512866
 30
0.0
 11
12.4337520126719
 21
-15.30860682512866
 31
0.0
  0
LINE
  5
1E7
330
1F
100
AcDbEntity
  8
0
  6
Continuous
 62
     7
370
    13
100
AcDbLine
 10
12.4337520126719
 20
-15.30860682512866
 30
0.0
 11
12.4337520126719
 21
-20.04861351782165
 31
0.0
  0
LINE
  5
1E8
330
1F
100
AcDbEntity
  8
0
  6
Continuous
 62
     7
370
    13
100
AcDbLine
 10
14.93373549681564
 20
-20.04861351782165
 30
0.0
 11
14.93373549681564
 21
-10.30861511285912
 31
0.0
  0
LINE
  5
1E9
330
1F
100
AcDbEntity
  8
0
  6
Continuous
 62
     7
370
    13
100
AcDbLine
 10
14.93373549681564
 20
-10.30861511285912
 30
0.0
 11
13.43375530392223
 21
-10.30861511285912
 31
0.0
  0
LINE
  5
1EA
330
1F
100
AcDbEntity
  8
0
  6
Continuous
 62
     7
370
    13
100
AcDbLine
 10
13.43375530392223
 20
-10.30861511285912
 30
0.0
 11
13.43375530392223
 21
-9.308611821608793
 31
0.0
  0
LINE
  5
1EB
330
1F
100
AcDbEntity
  8
0
  6
Continuous
 62
     7
370
    13
100
AcDbLine
 10
13.93373220556532
 20
-8.808610175983631
 30
0.0
 11
14.43375859517255
 21
-8.808610175983631
 31
0.0
  0
LINE
  5
1EC
330
1F
100
AcDbEntity
  8
0
  6
Continuous
 62
     7
370
    13
100
AcDbLine
 10
58.63556686403172
 20
-23.30860841114918
 30
0.0
 11
11.12227147516387
 21
-23.30860841114918
 31
0.0
  0
LINE
  5
1ED
330
1F
100
AcDbEntity
  8
0
  6
Continuous
 62
     7
370
    13
100
AcDbLine
 10
-2.566247868118808
 20
-49.47955117982929
 30
0.0
 11
17.43376846892352
 21
-49.47955117982929
 31
0.0
  0
LINE
  5
1EE
330
1F
100
AcDbEntity
  8
0
  6
Continuous
 62
     7
370
    13
100
AcDbLine
 10
17.43376846892352
 20
-49.47955117982929
 30
0.0
 11
17.43376846892352
 21
-37.37709634305065
 31
0.0
  0
LINE
  5
1EF
330
1F
100
AcDbEntity
  8
0
  6
Continuous
 62
     7
370
    13
100
AcDbLine
 10
17.43376846892352
 20
-61.13376878146664
 30
0.0
 11
17.43376846892352
 21
-39.17004528361576
 31
0.0
  0
LINE
  5
1F0
330
1F
100
AcDbEntity
  8
0
  6
Continuous
 62
     7
370
    13
100
AcDbLine
 10
70.28978446566907
 20
-23.30860841114918
 30
0.0
 11
30.84475930934423
 21
-23.30860841114918
 31
0.0
  0
LINE
  5
1F1
330
1F
100
AcDbEntity
  8
0
  6
Continuous
 62
     7
370
    13
100
AcDbLine
 10
32.63770824990934
 20
16.19137312934618
 30
0.0
 11
11.12227147516387
 21
16.19137312934618
 31
0.0
  0
LINE
  5
1F2
330
1F
100
AcDbEntity
  8
0
  6
Continuous
 62
     7
370
    13
100
AcDbLine
 10
49.67082216120616
 20
-23.30860841114918
 30
0.0
 11
49.67082216120616
 21
57.69138599632424
 31
0.0
  0
LINE
  5
1F3
330
1F
100
AcDbEntity
  8
0
  6
Continuous
 62
     7
370
    13
100
AcDbLine
 10
49.67082216120616
 20
-23.30860841114918
 30
0.0
 11
24.56943801736634
 21
-23.30860841114918
 31
0.0
  0
LINE
  5
1F4
330
1F
100
AcDbEntity
  8
0
  6
Continuous
 62
     7
370
    13
100
AcDbLine
 10
49.67082216120616
 20
57.69138599632424
 30
0.0
 11
24.56943801736634
 21
57.69138599632424
 31
0.0
  0
LINE
  5
1F5
330
1F
100
AcDbEntity
  8
0
  6
Continuous
 62
     7
370
    13
100
AcDbLine
 10
49.67082216120616
 20
57.69138599632424
 30
0.0
 11
25.51935948891332
 21
57.69138599632424
 31
0.0
  0
LINE
  5
1F6
330
1F
100
AcDbEntity
  8
0
  6
Continuous
 62
     7
370
    13
100
AcDbLine
 10
-16.24093532542611
 20
70.08888807526819
 30
0.0
 11
3.077607001512661
 21
75.26527963569242
 31
0.0
  0
LINE
  5
1F7
330
1F
100
AcDbEntity
  8
0
  6
Continuous
 62
     7
370
    13
100
AcDbLine
 10
-16.24093532542611
 20
70.08888807526819
 30
0.0
 11
-14.20448085734097
 21
62.48877398343029
 31
0.0
  0
LINE
  5
1F8
330
1F
100
AcDbEntity
  8
0
  6
Continuous
 62
     7
370
    13
100
AcDbLine
 10
3.077607001512661
 20
75.26527963569242
 30
0.0
 11
5.114036725615733
 21
67.66514079987246
 31
0.0
  0
LINE
  5
1F9
330
1F
100
AcDbEntity
  8
0
  6
Continuous
 62
     7
370
    13
100
AcDbLine
 10
-2.566247868118808
 20
-49.47955117982929
 30
0.0
 11
-2.566247868118808
 21
-0.2508544901938876
 31
0.0
  0
LINE
  5
1FA
330
1F
100
AcDbEntity
  8
0
  6
Continuous
 62
     7
370
    13
100
AcDbLine
 10
-14.71635961435823
 20
107.3935340388271
 30
0.0
 11
-6.023031650824123
 21
109.7229077666198
 31
0.0
  0
LINE
  5
1FB
330
1F
100
AcDbEntity
  8
0
  6
Continuous
 62
     7
370
    13
100
AcDbLine
 10
-14.71635961435823
 20
107.3935340388271
 30
0.0
 11
-13.26262592394778
 21
101.9681437868639
 31
0.0
  0
LINE
  5
1FC
330
1F
100
AcDbEntity
  8
0
  6
Continuous
 62
     7
370
    13
100
AcDbLine
 10
-6.023031650824123
 20
109.7229077666198
 30
0.0
 11
-4.569273216431611
 21
104.2975175146566
 31
0.0
  0
LINE
  5
1FD
330
1F
100
AcDbEntity
  8
0
  6
Continuous
 62
     7
370
    13
100
AcDbLine
 10
-82.56623898434191
 20
-61.13376878146664
 30
0.0
 11
-83.70686232567823
 21
-61.13376878146664
 31
0.0
  0
LINE
  5
1FE
330
1F
100
AcDbEntity
  8
0
  6
Continuous
 62
     7
370
    13
100
AcDbLine
 10
-2.566247868118808
 20
-49.47955117982929
 30
0.0
 11
-2.566247868118808
 21
-49.79251306501101
 31
0.0
  0
LINE
  5
1FF
330
1F
100
AcDbEntity
  8
0
  6
Continuous
 62
     7
370
    13
100
AcDbLine
 10
17.43376846892352
 20
-49.47955117982929
 30
0.0
 11
17.43376846892352
 21
-49.5475723865311
 31
0.0
  0
LINE
  5
200
330
1F
100
AcDbEntity
  8
0
  6
Continuous
 62
     7
370
    13
100
AcDbLine
 10
17.43376846892352
 20
-61.13376878146664
 30
0.0
 11
17.43376846892352
 21
-60.81429922900134
 31
0.0
  0
LINE
  5
201
330
1F
100
AcDbEntity
  8
0
  6
Continuous
 62
     7
370
    13
100
AcDbLine
 10
49.67082216120616
 20
-23.30860841114918
 30
0.0
 11
49.67082216120616
 21
-23.58509766676434
 31
0.0
  0
LINE
  5
202
330
1F
100
AcDbEntity
  8
0
  6
Continuous
 62
     7
370
    13
100
AcDbLine
 10
70.28978446566907
 20
-23.30860841114918
 30
0.0
 11
70.28978446566907
 21
-23.58509766676434
 31
0.0
  0
LINE
  5
203
330
1F
100
AcDbEntity
  8
0
  6
Continuous
 62
     7
370
    13
100
AcDbLine
 10
32.63770824990934
 20
16.19137312934618
 30
0.0
 11
32.63770824990934
 21
17.1706904515886
 31
0.0
  0
LINE
  5
204
330
1F
100
AcDbEntity
  8
0
  6
Continuous
 62
     7
370
    13
100
AcDbLine
 10
32.63770824990934
 20
99.19139886330231
 30
0.0
 11
32.63770824990934
 21
99.52324040680105
 31
0.0
  0
LINE
  5
205
330
1F
100
AcDbEntity
  8
0
  6
Continuous
 62
     7
370
    13
100
AcDbLine
 10
49.67082216120616
 20
57.69138599632424
 30
0.0
 11
49.37854624503234
 21
57.69138599632424
 31
0.0
  0
LINE
  5
206
330
1F
100
AcDbEntity
  8
0
  6
Continuous
 62
     7
370
    13
100
AcDbLine
 10
49.67082216120616
 20
146.6913819898182
 30
0.0
 11
49.93662201656844
 21
146.6913819898182
 31
0.0
  0
LINE
  5
207
330
1F
100
AcDbEntity
  8
0
  6
Continuous
 62
     7
370
    13
100
AcDbLine
 10
70.28978446566907
 20
146.6913819898182
 30
0.0
 11
69.73611312294088
 21
146.6913819898182
 31
0.0
  0
LINE
  5
208
330
1F
100
AcDbEntity
  8
0
  6
Continuous
 62
     7
370
    13
100
AcDbLine
 10
-71.7199371411698
 20
-162.5133893268612
 30
0.0
 11
59.16587988768879
 21
-162.5133893268612
 31
0.0
  0
LINE
  5
209
330
1F
100
AcDbEntity
  8
0
  6
Continuous
 62
     7
370
    13
100
AcDbLine
 10
59.16587988768879
 20
-162.5133893268612
 30
0.0
 11
59.16587988768879
 21
-134.7225570281917
 31
0.0
  0
LINE
  5
20A
330
1F
100
AcDbEntity
  8
0
  6
Continuous
 62
     7
370
    13
100
AcDbLine
 10
59.16587988768879
 20
-134.7225570281917
 30
0.0
 11
-71.7199371411698
 21
-134.7225570281917
 31
0.0
  0
LINE
  5
20B
330
1F
100
AcDbEntity
  8
0
  6
Continuous
 62
     7
370
    13
100
AcDbLine
 10
-71.7199371411698
 20
-134.7225570281917
 30
0.0
 11
-71.7199371411698
 21
-162.5133893268612
 31
0.0
  0
LINE
  5
20C
330
1F
100
AcDbEntity
  8
0
  6
Continuous
 62
     7
370
    13
100
AcDbLine
 10
188.3428280270455
 20
16.49141865588899
 30
0.0
 11
188.3428280270455
 21
-19.00862395155127
 31
0.0
  0
LINE
  5
20D
330
1F
100
AcDbEntity
  8
0
  6
Continuous
 62
     7
370
    13
100
AcDbLine
 10
186.0428254059661
 20
126.6913161648117
 30
0.0
 11
186.0428254059661
 21
-23.30860841114918
 31
0.0
  0
LINE
  5
20E
330
1F
100
AcDbEntity
  8
0
  6
Continuous
 62
     7
370
    13
100
AcDbLine
 10
198.5428418026131
 20
-23.30860841114918
 30
0.0
 11
186.0428254059661
 21
-23.30860841114918
 31
0.0
  0
LINE
  5
20F
330
1F
100
AcDbEntity
  8
0
  6
Continuous
 62
     7
370
    13
100
AcDbLine
 10
198.5428418026131
 20
-23.30860841114918
 30
0.0
 11
198.5428418026131
 21
-21.30860182864853
 31
0.0
  0
LINE
  5
210
330
1F
100
AcDbEntity
  8
0
  6
Continuous
 62
     7
370
    13
100
AcDbLine
 10
199.7428259569278
 20
-21.30860182864853
 30
0.0
 11
198.5428418026131
 21
-21.30860182864853
 31
0.0
  0
LINE
  5
211
330
1F
100
AcDbEntity
  8
0
  6
Continuous
 62
     7
370
    13
100
AcDbLine
 10
200.0428219955065
 20
-21.00863053405192
 30
0.0
 11
200.0428219955065
 21
-18.80866783246893
 31
0.0
  0
LINE
  5
212
330
1F
100
AcDbEntity
  8
0
  6
Continuous
 62
     7
370
    13
100
AcDbLine
 10
199.0428187042562
 20
-19.70863120422291
 30
0.0
 11
199.0428187042562
 21
-18.80866783246893
 31
0.0
  0
LINE
  5
213
330
1F
100
AcDbEntity
  8
0
  6
Continuous
 62
     7
370
    13
100
AcDbLine
 10
198.7428226656775
 20
-20.00857775483746
 30
0.0
 11
197.8428840379056
 21
-20.00857775483746
 31
0.0
  0
LINE
  5
214
330
1F
100
AcDbEntity
  8
0
  6
Continuous
 62
     7
370
    13
100
AcDbLine
 10
197.5428385113628
 20
-19.70863120422291
 30
0.0
 11
197.5428385113628
 21
-15.30868105707486
 31
0.0
  0
LINE
  5
215
330
1F
100
AcDbEntity
  8
0
  6
Continuous
 62
     7
370
    13
100
AcDbLine
 10
198.5428418026131
 20
-14.30862827786041
 30
0.0
 11
201.1043883141392
 21
-14.30862827786041
 31
0.0
  0
LINE
  5
216
330
1F
100
AcDbEntity
  8
0
  6
Continuous
 62
     7
370
    13
100
AcDbLine
 10
208.842870753695
 20
-10.30859036887705
 30
0.0
 11
204.4511603525752
 21
-10.30859036887705
 31
0.0
  0
LINE
  5
217
330
1F
100
AcDbEntity
  8
0
  6
Continuous
 62
     7
370
    13
100
AcDbLine
 10
208.842870753695
 20
-10.30859036887705
 30
0.0
 11
209.0429011047236
 21
-10.1086342497947
 31
0.0
  0
LINE
  5
218
330
1F
100
AcDbEntity
  8
0
  6
Continuous
 62
     7
370
    13
100
AcDbLine
 10
209.242881967788
 20
-10.30859036887705
 30
0.0
 11
209.0429011047236
 21
-10.1086342497947
 31
0.0
  0
LINE
  5
219
330
1F
100
AcDbEntity
  8
0
  6
Continuous
 62
     7
370
    13
100
AcDbLine
 10
209.242881967788
 20
-10.30859036887705
 30
0.0
 11
217.042877946762
 21
-10.30859036887705
 31
0.0
  0
LINE
  5
21A
330
1F
100
AcDbEntity
  8
0
  6
Continuous
 62
     7
370
    13
100
AcDbLine
 10
218.0428317500482
 20
-11.30864314809151
 30
0.0
 11
218.0428317500482
 21
-13.80857714427111
 31
0.0
  0
LINE
  5
21B
330
1F
100
AcDbEntity
  8
0
  6
Continuous
 62
     7
370
    13
100
AcDbLine
 10
219.0428350412985
 20
-13.10859463558154
 30
0.0
 11
219.0428350412985
 21
-13.80857714427111
 31
0.0
  0
LINE
  5
21C
330
1F
100
AcDbEntity
  8
0
  6
Continuous
 62
     7
370
    13
100
AcDbLine
 10
219.3428310798772
 20
-12.80862334098492
 30
0.0
 11
220.2428686835774
 21
-12.80862334098492
 31
0.0
  0
LINE
  5
21D
330
1F
100
AcDbEntity
  8
0
  6
Continuous
 62
     7
370
    13
100
AcDbLine
 10
220.5428647221561
 20
-13.10859463558154
 30
0.0
 11
220.5428647221561
 21
-19.70863120422291
 31
0.0
  0
LINE
  5
21E
330
1F
100
AcDbEntity
  8
0
  6
Continuous
 62
     7
370
    13
100
AcDbLine
 10
219.3428310798772
 20
-20.00857775483746
 30
0.0
 11
220.2428686835774
 21
-20.00857775483746
 31
0.0
  0
LINE
  5
21F
330
1F
100
AcDbEntity
  8
0
  6
Continuous
 62
     7
370
    13
100
AcDbLine
 10
219.0428350412985
 20
-19.70863120422291
 30
0.0
 11
219.0428350412985
 21
-18.80866783246893
 31
0.0
  0
LINE
  5
220
330
1F
100
AcDbEntity
  8
0
  6
Continuous
 62
     7
370
    13
100
AcDbLine
 10
218.0428317500482
 20
-21.00863053405192
 30
0.0
 11
218.0428317500482
 21
-18.80866783246893
 31
0.0
  0
LINE
  5
221
330
1F
100
AcDbEntity
  8
0
  6
Continuous
 62
     7
370
    13
100
AcDbLine
 10
218.3428277886269
 20
-21.30860182864853
 30
0.0
 11
219.5428614309058
 21
-21.30860182864853
 31
0.0
  0
LINE
  5
222
330
1F
100
AcDbEntity
  8
0
  6
Continuous
 62
     7
370
    13
100
AcDbLine
 10
219.5428614309058
 20
-23.30860841114918
 30
0.0
 11
219.5428614309058
 21
-21.30860182864853
 31
0.0
  0
LINE
  5
223
330
1F
100
AcDbEntity
  8
0
  6
Continuous
 62
     7
370
    13
100
AcDbLine
 10
231.0428250483383
 20
-23.30860841114918
 30
0.0
 11
219.5428614309058
 21
-23.30860841114918
 31
0.0
  0
LINE
  5
224
330
1F
100
AcDbEntity
  8
0
  6
Continuous
 62
     7
370
    13
100
AcDbLine
 10
231.5428514379455
 20
-19.80862163575512
 30
0.0
 11
231.5428514379455
 21
-22.80858202154195
 31
0.0
  0
LINE
  5
225
330
1F
100
AcDbEntity
  8
0
  6
Continuous
 62
     7
370
    13
100
AcDbLine
 10
230.5428481466952
 20
-19.30859524614789
 30
0.0
 11
231.0428250483383
 21
-19.30859524614789
 31
0.0
  0
LINE
  5
226
330
1F
100
AcDbEntity
  8
0
  6
Continuous
 62
     7
370
    13
100
AcDbLine
 10
230.5428481466952
 20
-20.55866122016596
 30
0.0
 11
230.5428481466952
 21
-19.30859524614789
 31
0.0
  0
LINE
  5
227
330
1F
100
AcDbEntity
  8
0
  6
Continuous
 62
     7
370
    13
100
AcDbLine
 10
229.3428145044163
 20
-20.55866122016596
 30
0.0
 11
230.5428481466952
 21
-20.55866122016596
 31
0.0
  0
LINE
  5
228
330
1F
100
AcDbEntity
  8
0
  6
Continuous
 62
     7
370
    13
100
AcDbLine
 10
229.3428145044163
 20
-17.50864375865785
 30
0.0
 11
229.3428145044163
 21
-20.55866122016596
 31
0.0
  0
LINE
  5
229
330
1F
100
AcDbEntity
  8
0
  6
Continuous
 62
     7
370
    13
100
AcDbLine
 10
229.3428639923804
 20
-17.50864375865785
 30
0.0
 11
229.142883129316
 21
-17.30858866364724
 31
0.0
  0
LINE
  5
22A
330
1F
100
AcDbEntity
  8
0
  6
Continuous
 62
     7
370
    13
100
AcDbLine
 10
229.3428639923804
 20
-17.10860780058283
 30
0.0
 11
229.142883129316
 21
-17.30868763957551
 31
0.0
  0
LINE
  5
22B
330
1F
100
AcDbEntity
  8
0
  6
Continuous
 62
     7
370
    13
100
AcDbLine
 10
229.3428145044163
 20
-17.10860780058283
 30
0.0
 11
229.3428145044163
 21
-14.05859033907473
 31
0.0
  0
LINE
  5
22C
330
1F
100
AcDbEntity
  8
0
  6
Continuous
 62
     7
370
    13
100
AcDbLine
 10
230.5428481466952
 20
-14.05859033907473
 30
0.0
 11
229.3428145044163
 21
-14.05859033907473
 31
0.0
  0
LINE
  5
22D
330
1F
100
AcDbEntity
  8
0
  6
Continuous
 62
     7
370
    13
100
AcDbLine
 10
230.5428481466952
 20
-15.30868105707486
 30
0.0
 11
230.5428481466952
 21
-14.05859033907473
 31
0.0
  0
LINE
  5
22E
330
1F
100
AcDbEntity
  8
0
  6
Continuous
 62
     7
370
    13
100
AcDbLine
 10
230.5428481466952
 20
-15.30868105707486
 30
0.0
 11
231.0428250483383
 21
-15.30868105707486
 31
0.0
  0
LINE
  5
22F
330
1F
100
AcDbEntity
  8
0
  6
Continuous
 62
     7
370
    13
100
AcDbLine
 10
231.5428514379455
 20
-14.80865466746764
 30
0.0
 11
231.5428514379455
 21
-12.80862334098492
 31
0.0
  0
LINE
  5
230
330
1F
100
AcDbEntity
  8
0
  6
Continuous
 62
     7
370
    13
100
AcDbLine
 10
228.5428415641945
 20
-12.30859695137769
 30
0.0
 11
231.0428250483383
 21
-12.30859695137769
 31
0.0
  0
LINE
  5
231
330
1F
100
AcDbEntity
  8
0
  6
Continuous
 62
     7
370
    13
100
AcDbLine
 10
227.5428382729442
 20
-20.00857775483746
 30
0.0
 11
227.5428382729442
 21
-13.30864973059215
 31
0.0
  0
LINE
  5
232
330
1F
100
AcDbEntity
  8
0
  6
Continuous
 62
     7
370
    13
100
AcDbLine
 10
223.7428554589715
 20
-21.00863053405192
 30
0.0
 11
226.5428349816939
 21
-21.00863053405192
 31
0.0
  0
LINE
  5
233
330
1F
100
AcDbEntity
  8
0
  6
Continuous
 62
     7
370
    13
100
AcDbLine
 10
222.7428521677211
 20
-20.00857775483746
 30
0.0
 11
222.7428521677211
 21
-11.3995277942231
 31
0.0
  0
LINE
  5
234
330
1F
100
AcDbEntity
  8
0
  6
Continuous
 62
     7
370
    13
100
AcDbLine
 10
218.2749303018354
 20
-8.242591586204071
 30
0.0
 11
222.242875266078
 21
-10.53353790984693
 31
0.0
  0
LINE
  5
235
330
1F
100
AcDbEntity
  8
0
  6
Continuous
 62
     7
370
    13
100
AcDbLine
 10
200.6261366287508
 20
-8.108627667294058
 30
0.0
 11
217.7749039122282
 21
-8.108627667294058
 31
0.0
  0
LINE
  5
236
330
1F
100
AcDbEntity
  8
0
  6
Continuous
 62
     7
370
    13
100
AcDbLine
 10
196.8428807466553
 20
-8.108627667294058
 30
0.0
 11
197.4595007797616
 21
-8.108627667294058
 31
0.0
  0
LINE
  5
237
330
1F
100
AcDbEntity
  8
0
  6
Continuous
 62
     7
370
    13
100
AcDbLine
 10
195.3428510657977
 20
-19.00862395155127
 30
0.0
 11
195.3428510657977
 21
-9.608607860187476
 31
0.0
  0
LINE
  5
238
330
1F
100
AcDbEntity
  8
0
  6
Continuous
 62
     7
370
    13
100
AcDbLine
 10
190.3428346095461
 20
-21.00863053405192
 30
0.0
 11
193.3428939712612
 21
-21.00863053405192
 31
0.0
  0
LINE
  5
239
330
1F
100
AcDbEntity
  8
0
  6
Continuous
 62
     7
370
    13
100
AcDbLine
 10
188.3428775150096
 20
16.49141865588899
 30
0.0
 11
188.542858378074
 21
16.69137477497134
 31
0.0
  0
LINE
  5
23A
330
1F
100
AcDbEntity
  8
0
  6
Continuous
 62
     7
370
    13
100
AcDbLine
 10
188.542858378074
 20
118.1912139572378
 30
0.0
 11
188.542858378074
 21
16.69137477497134
 31
0.0
  0
LINE
  5
23B
330
1F
100
AcDbEntity
  8
0
  6
Continuous
 62
     7
370
    13
100
AcDbLine
 10
203.0428813572216
 20
121.1912733189529
 30
0.0
 11
224.0428514975501
 21
121.1912733189529
 31
0.0
  0
LINE
  5
23C
330
1F
100
AcDbEntity
  8
0
  6
Continuous
 62
     7
370
    13
100
AcDbLine
 10
224.0428514975501
 20
121.1912733189529
 30
0.0
 11
224.0428514975501
 21
120.1912205397384
 31
0.0
  0
LINE
  5
23D
330
1F
100
AcDbEntity
  8
0
  6
Continuous
 62
     7
370
    13
100
AcDbLine
 10
224.0428514975501
 20
120.1912205397384
 30
0.0
 11
226.0428085920867
 21
120.1912205397384
 31
0.0
  0
LINE
  5
23E
330
1F
100
AcDbEntity
  8
0
  6
Continuous
 62
     7
370
    13
100
AcDbLine
 10
226.0428580800508
 20
123.1912799014535
 30
0.0
 11
226.0428580800508
 21
120.1912205397384
 31
0.0
  0
LINE
  5
23F
330
1F
100
AcDbEntity
  8
0
  6
Continuous
 62
     7
370
    13
100
AcDbLine
 10
227.0428613713011
 20
124.1912831927038
 30
0.0
 11
245.0428711258428
 21
124.1912831927038
 31
0.0
  0
LINE
  5
240
330
1F
100
AcDbEntity
  8
0
  6
Continuous
 62
     7
370
    13
100
AcDbLine
 10
250.0428380941303
 20
143.6912731401389
 30
0.0
 11
250.0428380941303
 21
129.1912501609913
 31
0.0
  0
LINE
  5
241
330
1F
100
AcDbEntity
  8
0
  6
Continuous
 62
     7
370
    13
100
AcDbLine
 10
267.5428214590647
 20
144.191250041782
 30
0.0
 11
250.5428644837375
 21
144.191250041782
 31
0.0
  0
LINE
  5
242
330
1F
100
AcDbEntity
  8
0
  6
Continuous
 62
     7
370
    13
100
AcDbLine
 10
268.542824750315
 20
143.1912962384959
 30
0.0
 11
268.542824750315
 21
141.6912665576383
 31
0.0
  0
LINE
  5
243
330
1F
100
AcDbEntity
  8
0
  6
Continuous
 62
     7
370
    13
100
AcDbLine
 10
266.3357110379147
 20
139.484152845238
 30
0.0
 11
268.542824750315
 21
141.6912665576383
 31
0.0
  0
LINE
  5
244
330
1F
100
AcDbEntity
  8
0
  6
Continuous
 62
     7
370
    13
100
AcDbLine
 10
266.0428412661713
 20
132.1054973928985
 30
0.0
 11
266.0428412661713
 21
138.7770688136952
 31
0.0
  0
LINE
  5
245
330
1F
100
AcDbEntity
  8
0
  6
Continuous
 62
     7
370
    13
100
AcDbLine
 10
266.3357110379147
 20
131.3983638733916
 30
0.0
 11
268.2499054906075
 21
129.4841694206989
 31
0.0
  0
LINE
  5
246
330
1F
100
AcDbEntity
  8
0
  6
Continuous
 62
     7
370
    13
100
AcDbLine
 10
268.9570390101144
 20
129.1912501609913
 30
0.0
 11
272.842833953895
 21
129.1912501609913
 31
0.0
  0
LINE
  5
247
330
1F
100
AcDbEntity
  8
0
  6
Continuous
 62
     7
370
    13
100
AcDbLine
 10
272.842833953895
 20
129.1912501609913
 30
0.0
 11
273.042666353067
 21
129.3910825601633
 31
0.0
  0
LINE
  5
248
330
1F
100
AcDbEntity
  8
0
  6
Continuous
 62
     7
370
    13
100
AcDbLine
 10
273.2427461920597
 20
129.1912501609913
 30
0.0
 11
273.0427653289953
 21
129.3911815360916
 31
0.0
  0
LINE
  5
249
330
1F
100
AcDbEntity
  8
0
  6
Continuous
 62
     7
370
    13
100
AcDbLine
 10
273.2427461920597
 20
129.1912501609913
 30
0.0
 11
276.6082741689024
 21
129.1912501609913
 31
0.0
  0
LINE
  5
24A
330
1F
100
AcDbEntity
  8
0
  6
Continuous
 62
     7
370
    13
100
AcDbLine
 10
277.33935986305
 20
128.873636407181
 30
0.0
 11
280.9739044129237
 21
124.9794285094977
 31
0.0
  0
LINE
  5
24B
330
1F
100
AcDbEntity
  8
0
  6
Continuous
 62
     7
370
    13
100
AcDbLine
 10
281.2428714979906
 20
124.2970884600218
 30
0.0
 11
281.2428714979906
 21
119.1912667364522
 31
0.0
  0
LINE
  5
24C
330
1F
100
AcDbEntity
  8
0
  6
Continuous
 62
     7
370
    13
100
AcDbLine
 10
284.042851020713
 20
119.6912931260595
 30
0.0
 11
284.042851020713
 21
120.3912014028028
 31
0.0
  0
LINE
  5
24D
330
1F
100
AcDbEntity
  8
0
  6
Continuous
 62
     7
370
    13
100
AcDbLine
 10
283.7428549821343
 20
123.4913749159605
 30
0.0
 11
283.7428549821343
 21
120.6912469293457
 31
0.0
  0
LINE
  5
24E
330
1F
100
AcDbEntity
  8
0
  6
Continuous
 62
     7
370
    13
100
AcDbLine
 10
283.7428054941702
 20
123.4912759400322
 30
0.0
 11
283.5428246311058
 21
123.6912568030966
 31
0.0
  0
LINE
  5
24F
330
1F
100
AcDbEntity
  8
0
  6
Continuous
 62
     7
370
    13
100
AcDbLine
 10
283.742756006206
 20
123.8910892022686
 30
0.0
 11
283.5426266792492
 21
123.691009363276
 31
0.0
  0
LINE
  5
250
330
1F
100
AcDbEntity
  8
0
  6
Continuous
 62
     7
370
    13
100
AcDbLine
 10
283.7428549821343
 20
123.8911881781969
 30
0.0
 11
283.7428549821343
 21
126.6912171888835
 31
0.0
  0
LINE
  5
251
330
1F
100
AcDbEntity
  8
0
  6
Continuous
 62
     7
370
    13
100
AcDbLine
 10
284.042851020713
 20
126.9912627154263
 30
0.0
 11
284.042851020713
 21
129.1912501609913
 31
0.0
  0
LINE
  5
252
330
1F
100
AcDbEntity
  8
0
  6
Continuous
 62
     7
370
    13
100
AcDbLine
 10
283.0428477294627
 20
129.1912501609913
 30
0.0
 11
283.0428477294627
 21
128.6913227473124
 31
0.0
  0
LINE
  5
253
330
1F
100
AcDbEntity
  8
0
  6
Continuous
 62
     7
370
    13
100
AcDbLine
 10
281.0428906349262
 20
128.6913227473124
 30
0.0
 11
281.0428906349262
 21
129.6912765505986
 31
0.0
  0
LINE
  5
254
330
1F
100
AcDbEntity
  8
0
  6
Continuous
 62
     7
370
    13
100
AcDbLine
 10
280.5428642453189
 20
130.1913029402058
 30
0.0
 11
279.8428569926473
 21
130.1913029402058
 31
0.0
  0
LINE
  5
255
330
1F
100
AcDbEntity
  8
0
  6
Continuous
 62
     7
370
    13
100
AcDbLine
 10
279.3428800910042
 20
131.5911689816567
 30
0.0
 11
279.3428800910042
 21
130.691329329813
 31
0.0
  0
LINE
  5
256
330
1F
100
AcDbEntity
  8
0
  6
Continuous
 62
     7
370
    13
100
AcDbLine
 10
269.9596156754997
 20
132.1125246838055
 30
0.0
 11
279.3428800910042
 21
131.5912679575849
 31
0.0
  0
LINE
  5
257
330
1F
100
AcDbEntity
  8
0
  6
Continuous
 62
     7
370
    13
100
AcDbLine
 10
268.542824750315
 20
133.6102284303488
 30
0.0
 11
268.542824750315
 21
137.6910554407805
 31
0.0
  0
LINE
  5
258
330
1F
100
AcDbEntity
  8
0
  6
Continuous
 62
     7
370
    13
100
AcDbLine
 10
269.5428280415654
 20
138.6912566838873
 30
0.0
 11
276.2389949805365
 21
138.6912566838873
 31
0.0
  0
LINE
  5
259
330
1F
100
AcDbEntity
  8
0
  6
Continuous
 62
     7
370
    13
100
AcDbLine
 10
276.8533880552568
 20
144.8913067824178
 30
0.0
 11
275.1397188332339
 21
143.9018939154921
 31
0.0
  0
LINE
  5
25A
330
1F
100
AcDbEntity
  8
0
  6
Continuous
 62
     7
370
    13
100
AcDbLine
 10
276.8533880552568
 20
144.8913067824178
 30
0.0
 11
283.2428780804912
 21
144.8913067824178
 31
0.0
  0
LINE
  5
25B
330
1F
100
AcDbEntity
  8
0
  6
Continuous
 62
     7
370
    13
100
AcDbLine
 10
284.2428813717415
 20
143.8913034911675
 30
0.0
 11
284.2428813717415
 21
138.1912797822442
 31
0.0
  0
LINE
  5
25C
330
1F
100
AcDbEntity
  8
0
  6
Continuous
 62
     7
370
    13
100
AcDbLine
 10
286.0428576032136
 20
146.6912830138899
 30
0.0
 11
286.0428576032136
 21
136.6912501013867
 31
0.0
  0
LINE
  5
25D
330
1F
100
AcDbEntity
  8
0
  6
Continuous
 62
     7
370
    13
100
AcDbLine
 10
273.242845167988
 20
146.6912830138899
 30
0.0
 11
286.0428576032136
 21
146.6912830138899
 31
0.0
  0
LINE
  5
25E
330
1F
100
AcDbEntity
  8
0
  6
Continuous
 62
     7
370
    13
100
AcDbLine
 10
273.242845167988
 20
146.6912830138899
 30
0.0
 11
273.0427653289953
 21
146.4912526628614
 31
0.0
  0
LINE
  5
25F
330
1F
100
AcDbEntity
  8
0
  6
Continuous
 62
     7
370
    13
100
AcDbLine
 10
272.842833953895
 20
146.6912830138899
 30
0.0
 11
273.0428148169594
 21
146.4913021508255
 31
0.0
  0
LINE
  5
260
330
1F
100
AcDbEntity
  8
0
  6
Continuous
 62
     7
370
    13
100
AcDbLine
 10
257.3428571714612
 20
146.6912830138899
 30
0.0
 11
246.5428513187362
 21
146.6912830138899
 31
0.0
  0
LINE
  5
261
330
1F
100
AcDbEntity
  8
0
  6
Continuous
 62
     7
370
    13
100
AcDbLine
 10
246.5428513187362
 20
144.6912764313893
 30
0.0
 11
246.5428513187362
 21
146.6912830138899
 31
0.0
  0
LINE
  5
262
330
1F
100
AcDbEntity
  8
0
  6
Continuous
 62
     7
370
    13
100
AcDbLine
 10
246.5428513187362
 20
144.6912764313893
 30
0.0
 11
245.3428671644215
 21
144.6912764313893
 31
0.0
  0
LINE
  5
263
330
1F
100
AcDbEntity
  8
0
  6
Continuous
 62
     7
370
    13
100
AcDbLine
 10
245.0428711258428
 20
144.3912803928106
 30
0.0
 11
245.0428711258428
 21
142.1912929472455
 31
0.0
  0
LINE
  5
264
330
1F
100
AcDbEntity
  8
0
  6
Continuous
 62
     7
370
    13
100
AcDbLine
 10
246.0428744170931
 20
143.0912810629816
 30
0.0
 11
246.0428744170931
 21
142.1912929472455
 31
0.0
  0
LINE
  5
265
330
1F
100
AcDbEntity
  8
0
  6
Continuous
 62
     7
370
    13
100
AcDbLine
 10
247.2428585714079
 20
143.3912771015603
 30
0.0
 11
246.3428704556718
 21
143.3912771015603
 31
0.0
  0
LINE
  5
266
330
1F
100
AcDbEntity
  8
0
  6
Continuous
 62
     7
370
    13
100
AcDbLine
 10
247.5428546099865
 20
143.0912810629816
 30
0.0
 11
247.5428546099865
 21
136.4912692383223
 31
0.0
  0
LINE
  5
267
330
1F
100
AcDbEntity
  8
0
  6
Continuous
 62
     7
370
    13
100
AcDbLine
 10
247.2428585714079
 20
136.1913226877077
 30
0.0
 11
246.3428704556718
 21
136.1913226877077
 31
0.0
  0
LINE
  5
268
330
1F
100
AcDbEntity
  8
0
  6
Continuous
 62
     7
370
    13
100
AcDbLine
 10
246.0428744170931
 20
137.1912764909939
 30
0.0
 11
246.0428744170931
 21
136.4912692383223
 31
0.0
  0
LINE
  5
269
330
1F
100
AcDbEntity
  8
0
  6
Continuous
 62
     7
370
    13
100
AcDbLine
 10
245.0428711258428
 20
137.1912764909939
 30
0.0
 11
245.0428711258428
 21
135.4913154350361
 31
0.0
  0
LINE
  5
26A
330
1F
100
AcDbEntity
  8
0
  6
Continuous
 62
     7
370
    13
100
AcDbLine
 10
247.0428777083434
 20
134.9912890454289
 30
0.0
 11
245.5428480274859
 21
134.9912890454289
 31
0.0
  0
LINE
  5
26B
330
1F
100
AcDbEntity
  8
0
  6
Continuous
 62
     7
370
    13
100
AcDbLine
 10
247.5428546099865
 20
134.4912626558216
 30
0.0
 11
247.5428546099865
 21
129.1912501609913
 31
0.0
  0
LINE
  5
26C
330
1F
100
AcDbEntity
  8
0
  6
Continuous
 62
     7
370
    13
100
AcDbLine
 10
236.2428223676543
 20
126.6913161648117
 30
0.0
 11
245.0428711258428
 21
126.6913161648117
 31
0.0
  0
LINE
  5
26D
330
1F
100
AcDbEntity
  8
0
  6
Continuous
 62
     7
370
    13
100
AcDbLine
 10
236.242723391726
 20
126.6912171888835
 30
0.0
 11
236.0426435527334
 21
126.4911373498908
 31
0.0
  0
LINE
  5
26E
330
1F
100
AcDbEntity
  8
0
  6
Continuous
 62
     7
370
    13
100
AcDbLine
 10
235.8428111535613
 20
126.6913161648117
 30
0.0
 11
236.0427920166258
 21
126.4913353017473
 31
0.0
  0
LINE
  5
26F
330
1F
100
AcDbEntity
  8
0
  6
Continuous
 62
     7
370
    13
100
AcDbLine
 10
235.8428606415255
 20
126.6913161648117
 30
0.0
 11
222.5428713046567
 21
126.6913161648117
 31
0.0
  0
LINE
  5
270
330
1F
100
AcDbEntity
  8
0
  6
Continuous
 62
     7
370
    13
100
AcDbLine
 10
224.0428514975501
 20
125.6912633855973
 30
0.0
 11
222.5428713046567
 21
125.6912633855973
 31
0.0
  0
LINE
  5
271
330
1F
100
AcDbEntity
  8
0
  6
Continuous
 62
     7
370
    13
100
AcDbLine
 10
224.0428514975501
 20
123.6912568030966
 30
0.0
 11
224.0428514975501
 21
125.6912633855973
 31
0.0
  0
LINE
  5
272
330
1F
100
AcDbEntity
  8
0
  6
Continuous
 62
     7
370
    13
100
AcDbLine
 10
214.7428753256827
 20
123.6912568030966
 30
0.0
 11
224.0428514975501
 21
123.6912568030966
 31
0.0
  0
LINE
  5
273
330
1F
100
AcDbEntity
  8
0
  6
Continuous
 62
     7
370
    13
100
AcDbLine
 10
214.5428449746541
 20
123.4912759400322
 30
0.0
 11
214.7428753256827
 21
123.6912568030966
 31
0.0
  0
LINE
  5
274
330
1F
100
AcDbEntity
  8
0
  6
Continuous
 62
     7
370
    13
100
AcDbLine
 10
214.3428641115897
 20
123.6912568030966
 30
0.0
 11
214.5428449746541
 21
123.4912759400322
 31
0.0
  0
LINE
  5
275
330
1F
100
AcDbEntity
  8
0
  6
Continuous
 62
     7
370
    13
100
AcDbLine
 10
214.3428641115897
 20
123.6912568030966
 30
0.0
 11
204.1663571189856
 21
123.6912568030966
 31
0.0
  0
LINE
  5
276
330
1F
100
AcDbEntity
  8
0
  6
Continuous
 62
     7
370
    13
100
AcDbLine
 10
187.5428550868237
 20
123.6912568030966
 30
0.0
 11
187.5428550868237
 21
125.6910654337407
 31
0.0
  0
LINE
  5
277
330
1F
100
AcDbEntity
  8
0
  6
Continuous
 62
     7
370
    13
100
AcDbLine
 10
188.542858378074
 20
125.6912633855973
 30
0.0
 11
187.5428550868237
 21
125.6912633855973
 31
0.0
  0
LINE
  5
278
330
1F
100
AcDbEntity
  8
0
  6
Continuous
 62
     7
370
    13
100
AcDbLine
 10
188.542858378074
 20
126.6913161648117
 30
0.0
 11
186.0428254059661
 21
126.6913161648117
 31
0.0
  0
LINE
  5
279
330
1F
100
AcDbEntity
  8
0
  6
Continuous
 62
     7
370
    13
100
AcDbLine
 10
231.5428514379455
 20
-23.30870738707745
 30
0.0
 11
219.5428614309058
 21
-23.30870738707745
 31
0.0
  0
LINE
  5
27A
330
1F
100
AcDbEntity
  8
0
  6
Continuous
 62
     7
370
    13
100
AcDbLine
 10
223.3428442448785
 20
136.8859852402529
 30
0.0
 11
223.3428442448785
 21
144.991272469968
 31
0.0
  0
LINE
  5
27B
330
1F
100
AcDbEntity
  8
0
  6
Continuous
 62
     7
370
    13
100
AcDbLine
 10
188.0428319884668
 20
145.491249371611
 30
0.0
 11
222.8428178552713
 21
145.491249371611
 31
0.0
  0
LINE
  5
27C
330
1F
100
AcDbEntity
  8
0
  6
Continuous
 62
     7
370
    13
100
AcDbLine
 10
187.5428550868237
 20
128.6616794567963
 30
0.0
 11
187.5428550868237
 21
144.991272469968
 31
0.0
  0
LINE
  5
27D
330
1F
100
AcDbEntity
  8
0
  6
Continuous
 62
     7
370
    13
100
AcDbLine
 10
189.0962822809815
 20
128.3122944300121
 30
0.0
 11
188.1161236633488
 21
128.1670967432437
 31
0.0
  0
LINE
  5
27E
330
1F
100
AcDbEntity
  8
0
  6
Continuous
 62
     7
370
    13
100
AcDbLine
 10
190.242868921996
 20
127.3230300269788
 30
0.0
 11
190.242868921996
 21
124.1912831927038
 31
0.0
  0
LINE
  5
27F
330
1F
100
AcDbEntity
  8
0
  6
Continuous
 62
     7
370
    13
100
AcDbLine
 10
189.3064576646575
 20
123.9473075295246
 30
0.0
 11
188.5810135984211
 21
125.2449314370751
 31
0.0
  0
LINE
  5
280
330
1F
100
AcDbEntity
  8
0
  6
Continuous
 62
     7
370
    13
100
AcDbLine
 10
189.0428352797171
 20
125.8911947606975
 30
0.0
 11
188.6736550672795
 21
125.6389051195438
 31
0.0
  0
LINE
  5
281
330
1F
100
AcDbEntity
  8
0
  6
Continuous
 62
     7
370
    13
100
AcDbLine
 10
189.0428352797171
 20
126.5117243429704
 30
0.0
 11
189.0428352797171
 21
125.8911947606975
 31
0.0
  0
LINE
  5
282
330
1F
100
AcDbEntity
  8
0
  6
Continuous
 62
     7
370
    13
100
AcDbLine
 10
188.469566703192
 20
127.0063070565229
 30
0.0
 11
186.3428214445448
 21
126.6913161648117
 31
0.0
  0
LINE
  5
283
330
1F
100
AcDbEntity
  8
0
  6
Continuous
 62
     7
370
    13
100
AcDbLine
 10
186.3428214445448
 20
126.6913161648117
 30
0.0
 11
186.3428214445448
 21
145.6912797226396
 31
0.0
  0
LINE
  5
284
330
1F
100
AcDbEntity
  8
0
  6
Continuous
 62
     7
370
    13
100
AcDbLine
 10
187.3428247357951
 20
146.6912830138899
 30
0.0
 11
225.5428316904436
 21
146.6912830138899
 31
0.0
  0
LINE
  5
285
330
1F
100
AcDbEntity
  8
0
  6
Continuous
 62
     7
370
    13
100
AcDbLine
 10
225.5428316904436
 20
144.6912764313893
 30
0.0
 11
225.5428316904436
 21
146.6912830138899
 31
0.0
  0
LINE
  5
286
330
1F
100
AcDbEntity
  8
0
  6
Continuous
 62
     7
370
    13
100
AcDbLine
 10
225.5428316904436
 20
144.6912764313893
 30
0.0
 11
226.7428653327224
 21
144.6912764313893
 31
0.0
  0
LINE
  5
287
330
1F
100
AcDbEntity
  8
0
  6
Continuous
 62
     7
370
    13
100
AcDbLine
 10
227.0428613713011
 20
142.1912929472455
 30
0.0
 11
227.0428613713011
 21
144.3912803928106
 31
0.0
  0
LINE
  5
288
330
1F
100
AcDbEntity
  8
0
  6
Continuous
 62
     7
370
    13
100
AcDbLine
 10
226.0428580800508
 20
142.1912929472455
 30
0.0
 11
226.0428580800508
 21
143.1912962384959
 31
0.0
  0
LINE
  5
289
330
1F
100
AcDbEntity
  8
0
  6
Continuous
 62
     7
370
    13
100
AcDbLine
 10
224.8428244377719
 20
143.4912427891104
 30
0.0
 11
225.7428620414721
 21
143.4912427891104
 31
0.0
  0
LINE
  5
28A
330
1F
100
AcDbEntity
  8
0
  6
Continuous
 62
     7
370
    13
100
AcDbLine
 10
224.5428283991932
 20
138.1912797822442
 30
0.0
 11
224.5428283991932
 21
143.1912962384959
 31
0.0
  0
LINE
  5
28B
330
1F
100
AcDbEntity
  8
0
  6
Continuous
 62
     7
370
    13
100
AcDbLine
 10
225.0428547888005
 20
137.6913028806011
 30
0.0
 11
226.5428349816939
 21
137.6913028806011
 31
0.0
  0
LINE
  5
28C
330
1F
100
AcDbEntity
  8
0
  6
Continuous
 62
     7
370
    13
100
AcDbLine
 10
224.5428283991932
 20
136.6912501013867
 30
0.0
 11
226.5428349816939
 21
136.6912501013867
 31
0.0
  0
LINE
  5
28D
330
1F
100
AcDbEntity
  8
0
  6
Continuous
 62
     7
370
    13
100
AcDbLine
 10
221.5428680134064
 20
127.6912699680979
 30
0.0
 11
224.5428283991932
 21
136.6912501013867
 31
0.0
  0
LINE
  5
28E
330
1F
100
AcDbEntity
  8
0
  6
Continuous
 62
     7
370
    13
100
AcDbLine
 10
221.5428680134064
 20
127.6912699680979
 30
0.0
 11
221.5428680134064
 21
125.5073166229122
 31
0.0
  0
LINE
  5
28F
330
1F
100
AcDbEntity
  8
0
  6
Continuous
 62
     7
370
    13
100
AcDbLine
 10
221.9375840153371
 20
125.2226123652508
 30
0.0
 11
223.2533700057247
 21
125.6605313598702
 31
0.0
  0
LINE
  5
290
330
1F
100
AcDbEntity
  8
0
  6
Continuous
 62
     7
370
    13
100
AcDbLine
 10
221.9217973547784
 20
123.952652229651
 30
0.0
 11
223.6322993470967
 21
124.5219122810813
 31
0.0
  0
LINE
  5
291
330
1F
100
AcDbEntity
  8
0
  6
Continuous
 62
     7
370
    13
100
AcDbLine
 10
220.3428343711275
 20
127.885955619
 30
0.0
 11
220.3428343711275
 21
125.0912218204758
 31
0.0
  0
LINE
  5
292
330
1F
100
AcDbEntity
  8
0
  6
Continuous
 62
     7
370
    13
100
AcDbLine
 10
220.3428343711275
 20
127.885955619
 30
0.0
 11
223.3428442448785
 21
136.8859852402529
 31
0.0
  0
LINE
  5
293
330
1F
100
AcDbEntity
  8
0
  6
Continuous
 62
     7
370
    13
100
AcDbLine
 10
198.5428418026131
 20
-23.30870738707745
 30
0.0
 11
187.0428286972165
 21
-23.30870738707745
 31
0.0
  0
LINE
  5
294
330
1F
100
AcDbEntity
  8
0
  6
Continuous
 62
     7
370
    13
100
AcDbLine
 10
222.5428713046567
 20
126.6913161648117
 30
0.0
 11
221.5428680134064
 21
126.6913161648117
 31
0.0
  0
LINE
  5
295
330
1F
100
AcDbEntity
  8
0
  6
Continuous
 62
     7
370
    13
100
AcDbLine
 10
284.042851020713
 20
-13.5585639494675
 30
0.0
 11
284.042851020713
 21
-15.80860847075382
 31
0.0
  0
LINE
  5
296
330
1F
100
AcDbEntity
  8
0
  6
Continuous
 62
     7
370
    13
100
AcDbLine
 10
285.2428846629919
 20
-23.30860841114918
 30
0.0
 11
286.0428576032136
 21
-23.30860841114918
 31
0.0
  0
LINE
  5
297
330
1F
100
AcDbEntity
  8
0
  6
Continuous
 62
     7
370
    13
100
AcDbLine
 10
270.5428313328157
 20
-23.30870738707745
 30
0.0
 11
286.0428576032136
 21
-23.30870738707745
 31
0.0
  0
LINE
  5
298
330
1F
100
AcDbEntity
  8
0
  6
Continuous
 62
     7
370
    13
100
AcDbLine
 10
280.5428642453189
 20
136.691349077315
 30
0.0
 11
286.0428576032136
 21
136.691349077315
 31
0.0
  0
LINE
  5
299
330
1F
100
AcDbEntity
  8
0
  6
Continuous
 62
     7
370
    13
100
AcDbLine
 10
286.0428576032136
 20
136.691349077315
 30
0.0
 11
286.0428576032136
 21
-23.30860841114918
 31
0.0
  0
LINE
  5
29A
330
1F
100
AcDbEntity
  8
0
  6
Continuous
 62
     7
370
    13
100
AcDbLine
 10
283.7429044700984
 20
-3.008645523492305
 30
0.0
 11
283.7429044700984
 21
116.3912872137298
 31
0.0
  0
LINE
  5
29B
330
1F
100
AcDbEntity
  8
0
  6
Continuous
 62
     7
370
    13
100
AcDbLine
 10
283.5428741190699
 20
133.6912897155999
 30
0.0
 11
281.2428714979906
 21
133.6912897155999
 31
0.0
  0
LINE
  5
29C
330
1F
100
AcDbEntity
  8
0
  6
Continuous
 62
     7
370
    13
100
AcDbLine
 10
280.7428451083833
 20
133.1912633259926
 30
0.0
 11
280.7428451083833
 21
131.2913214069704
 31
0.0
  0
LINE
  5
29D
330
1F
100
AcDbEntity
  8
0
  6
Continuous
 62
     7
370
    13
100
AcDbLine
 10
279.5428609540686
 20
135.6912962981005
 30
0.0
 11
279.5428609540686
 21
131.2913214069704
 31
0.0
  0
LINE
  5
29E
330
1F
100
AcDbEntity
  8
0
  6
Continuous
 62
     7
370
    13
100
AcDbLine
 10
283.5428741190699
 20
-20.30864802536234
 30
0.0
 11
281.2428714979906
 21
-20.30864802536234
 31
0.0
  0
LINE
  5
29F
330
1F
100
AcDbEntity
  8
0
  6
Continuous
 62
     7
370
    13
100
AcDbLine
 10
280.7428451083833
 20
-19.80862163575512
 30
0.0
 11
280.7428451083833
 21
-17.90870446071494
 31
0.0
  0
LINE
  5
2A0
330
1F
100
AcDbEntity
  8
0
  6
Continuous
 62
     7
370
    13
100
AcDbLine
 10
279.5428609540686
 20
-19.30869422207616
 30
0.0
 11
279.5428609540686
 21
-17.90870446071494
 31
0.0
  0
LINE
  5
2A1
330
1F
100
AcDbEntity
  8
0
  6
Continuous
 62
     7
370
    13
100
AcDbLine
 10
278.5428576628183
 20
-20.30864802536234
 30
0.0
 11
273.0428148169594
 21
-20.30864802536234
 31
0.0
  0
LINE
  5
2A2
330
1F
100
AcDbEntity
  8
0
  6
Continuous
 62
     7
370
    13
100
AcDbLine
 10
269.5428280415654
 20
-22.30865460786299
 30
0.0
 11
269.5428280415654
 21
-19.90871104321559
 31
0.0
  0
LINE
  5
2A3
330
1F
100
AcDbEntity
  8
0
  6
Continuous
 62
     7
370
    13
100
AcDbLine
 10
270.7428616838442
 20
-20.90866484650178
 30
0.0
 11
270.7428616838442
 21
-19.90871104321559
 31
0.0
  0
LINE
  5
2A4
330
1F
100
AcDbEntity
  8
0
  6
Continuous
 62
     7
370
    13
100
AcDbLine
 10
272.5428379153163
 20
-20.90866484650178
 30
0.0
 11
272.5428379153163
 21
-20.80867441496957
 31
0.0
  0
LINE
  5
2A5
330
1F
100
AcDbEntity
  8
0
  6
Continuous
 62
     7
370
    13
100
AcDbLine
 10
284.042851020713
 20
-10.50867020786973
 30
0.0
 11
284.042851020713
 21
-19.80862163575512
 31
0.0
  0
LINE
  5
2A6
330
1F
100
AcDbEntity
  8
0
  6
Continuous
 62
     7
370
    13
100
AcDbLine
 10
284.042851020713
 20
-10.1086342497947
 30
0.0
 11
284.042851020713
 21
-3.308616818088922
 31
0.0
  0
LINE
  5
2A7
330
1F
100
AcDbEntity
  8
0
  6
Continuous
 62
     7
370
    13
100
AcDbLine
 10
284.042851020713
 20
123.8912871541252
 30
0.0
 11
284.042851020713
 21
133.1912633259926
 31
0.0
  0
LINE
  5
2A8
330
1F
100
AcDbEntity
  8
0
  6
Continuous
 62
     7
370
    13
100
AcDbLine
 10
284.042851020713
 20
123.4912759400322
 30
0.0
 11
284.042851020713
 21
116.6913574842547
 31
0.0
  0
LINE
  5
2A9
330
1F
100
AcDbEntity
  8
0
  6
Continuous
 62
     7
370
    13
100
AcDbLine
 10
284.0429005086771
 20
-10.50867020786973
 30
0.0
 11
284.2429308597057
 21
-10.30868934480532
 31
0.0
  0
LINE
  5
2AA
330
1F
100
AcDbEntity
  8
0
  6
Continuous
 62
     7
370
    13
100
AcDbLine
 10
284.0429005086771
 20
-10.10873322572297
 30
0.0
 11
284.2429308597057
 21
-10.30868934480532
 31
0.0
  0
LINE
  5
2AB
330
1F
100
AcDbEntity
  8
0
  6
Continuous
 62
     7
370
    13
100
AcDbLine
 10
284.0429005086771
 20
123.4912759400322
 30
0.0
 11
284.2429308597057
 21
123.6913557790249
 31
0.0
  0
LINE
  5
2AC
330
1F
100
AcDbEntity
  8
0
  6
Continuous
 62
     7
370
    13
100
AcDbLine
 10
284.0429005086771
 20
123.8912871541252
 30
0.0
 11
284.2429308597057
 21
123.6913557790249
 31
0.0
  0
LINE
  5
2AD
330
1F
100
AcDbEntity
  8
0
  6
Continuous
 62
     7
370
    13
100
AcDbLine
 10
234.7928745065001
 20
-18.50760780266137
 30
0.0
 11
230.0428712450521
 21
-18.50760780266137
 31
0.0
  0
LINE
  5
2AE
330
1F
100
AcDbEntity
  8
0
  6
Continuous
 62
     7
370
    13
100
AcDbLine
 10
234.7928745065001
 20
-18.20776022797509
 30
0.0
 11
230.0428712450521
 21
-18.20776022797509
 31
0.0
  0
LINE
  5
2AF
330
1F
100
AcDbEntity
  8
0
  6
Continuous
 62
     7
370
    13
100
AcDbLine
 10
234.7928745065001
 20
-16.70827491472301
 30
0.0
 11
230.0428712450521
 21
-16.70827491472301
 31
0.0
  0
LINE
  5
2B0
330
1F
100
AcDbEntity
  8
0
  6
Continuous
 62
     7
370
    13
100
AcDbLine
 10
234.7928745065001
 20
-17.00812248940929
 30
0.0
 11
230.0428712450521
 21
-17.00812248940929
 31
0.0
  0
LINE
  5
2B1
330
1F
100
AcDbEntity
  8
0
  6
Continuous
 62
     7
370
    13
100
AcDbLine
 10
234.7928745065001
 20
-18.80738114540145
 30
0.0
 11
230.0428712450521
 21
-18.80738114540145
 31
0.0
  0
LINE
  5
2B2
330
1F
100
AcDbEntity
  8
0
  6
Continuous
 62
     7
370
    13
100
AcDbLine
 10
234.7928745065001
 20
-17.30839071179071
 30
0.0
 11
230.0428712450521
 21
-17.30839071179071
 31
0.0
  0
LINE
  5
2B3
330
1F
100
AcDbEntity
  8
0
  6
Continuous
 62
     7
370
    13
100
AcDbLine
 10
234.7928745065001
 20
-17.907986885235
 30
0.0
 11
230.0428712450521
 21
-17.907986885235
 31
0.0
  0
LINE
  5
2B4
330
1F
100
AcDbEntity
  8
0
  6
Continuous
 62
     7
370
    13
100
AcDbLine
 10
234.7928745065001
 20
-17.60823828647699
 30
0.0
 11
230.0428712450521
 21
-17.60823828647699
 31
0.0
  0
LINE
  5
2B5
330
1F
100
AcDbEntity
  8
0
  6
Continuous
 62
     7
370
    13
100
AcDbLine
 10
234.7928745065001
 20
-16.40800669234159
 30
0.0
 11
230.0428712450521
 21
-16.40800669234159
 31
0.0
  0
LINE
  5
2B6
330
1F
100
AcDbEntity
  8
0
  6
Continuous
 62
     7
370
    13
100
AcDbLine
 10
234.7928745065001
 20
-15.80791563925595
 30
0.0
 11
230.0428712450521
 21
-15.80791563925595
 31
0.0
  0
LINE
  5
2B7
330
1F
100
AcDbEntity
  8
0
  6
Continuous
 62
     7
370
    13
100
AcDbLine
 10
234.7928745065001
 20
-16.1081591176553
 30
0.0
 11
230.0428712450521
 21
-16.1081591176553
 31
0.0
  0
LINE
  5
2B8
330
1F
100
AcDbEntity
  8
0
  6
Continuous
 62
     7
370
    13
100
AcDbLine
 10
230.0428712450521
 20
-14.40800010984094
 30
0.0
 11
229.3428639923804
 21
-14.40800010984094
 31
0.0
  0
LINE
  5
2B9
330
1F
100
AcDbEntity
  8
0
  6
Continuous
 62
     7
370
    13
100
AcDbLine
 10
230.0428712450521
 20
-20.20826169011707
 30
0.0
 11
229.3428639923804
 21
-20.20826169011707
 31
0.0
  0
LINE
  5
2BA
330
1F
100
AcDbEntity
  8
0
  6
Continuous
 62
     7
370
    13
100
AcDbLine
 10
230.0428712450521
 20
-20.20826169011707
 30
0.0
 11
230.0428712450521
 21
-14.40819806169748
 31
0.0
  0
LINE
  5
2BB
330
1F
100
AcDbEntity
  8
0
  6
Continuous
 62
     7
370
    13
100
AcDbLine
 10
229.3428639923804
 20
-20.20826169011707
 30
0.0
 11
229.3428639923804
 21
-14.40819806169748
 31
0.0
  0
LINE
  5
2BC
330
1F
100
AcDbEntity
  8
0
  6
Continuous
 62
     7
370
    13
100
AcDbLine
 10
286.0428576032136
 20
125.691164409669
 30
0.0
 11
278.0428807611752
 21
125.691164409669
 31
0.0
  0
LINE
  5
2BD
330
1F
100
AcDbEntity
  8
0
  6
Continuous
 62
     7
370
    13
100
AcDbLine
 10
286.0428576032136
 20
121.6911017567036
 30
0.0
 11
278.0428807611752
 21
121.6911017567036
 31
0.0
  0
LINE
  5
2BE
330
1F
100
AcDbEntity
  8
0
  6
Continuous
 62
     7
370
    13
100
AcDbLine
 10
284.6429420737986
 20
121.6911017567036
 30
0.0
 11
284.6429420737986
 21
125.691164409669
 31
0.0
  0
LINE
  5
2BF
330
1F
100
AcDbEntity
  8
0
  6
Continuous
 62
     7
370
    13
100
AcDbLine
 10
286.0427091393212
 20
127.8413669633155
 30
0.0
 11
287.7426207073149
 21
127.6927546070219
 31
0.0
  0
LINE
  5
2C0
330
1F
100
AcDbEntity
  8
0
  6
Continuous
 62
     7
370
    13
100
AcDbLine
 10
286.0426596513571
 20
119.5415920345549
 30
0.0
 11
287.7423732674943
 21
119.6902043908485
 31
0.0
  0
LINE
  5
2C1
330
1F
100
AcDbEntity
  8
0
  6
Continuous
 62
     7
370
    13
100
AcDbLine
 10
287.7430660989921
 20
119.6899074630637
 30
0.0
 11
287.7430660989921
 21
127.6926556310937
 31
0.0
  0
LINE
  5
2C2
330
1F
100
AcDbEntity
  8
0
  6
Continuous
 62
     7
370
    13
100
AcDbLine
 10
286.0428576032136
 20
119.5412951067701
 30
0.0
 11
286.0428576032136
 21
127.8412679873873
 31
0.0
  0
LINE
  5
2C3
330
1F
100
AcDbEntity
  8
0
  6
Continuous
 62
     7
370
    13
100
AcDbLine
 10
278.0428807611752
 20
125.3121855803329
 30
0.0
 11
284.6429420737986
 21
125.3121855803329
 31
0.0
  0
LINE
  5
2C4
330
1F
100
AcDbEntity
  8
0
  6
Continuous
 62
     7
370
    13
100
AcDbLine
 10
278.0428807611752
 20
122.0702785378962
 30
0.0
 11
284.6429420737986
 21
122.0702785378962
 31
0.0
  0
LINE
  5
2C5
330
1F
100
AcDbEntity
  8
0
  6
Continuous
 62
     7
370
    13
100
AcDbLine
 10
278.0428807611752
 20
121.6911017567036
 30
0.0
 11
278.0428807611752
 21
125.691164409669
 31
0.0
  0
LINE
  5
2C6
330
1F
100
AcDbEntity
  8
0
  6
Continuous
 62
     7
370
    13
100
AcDbLine
 10
286.0428576032136
 20
146.6912830138899
 30
0.0
 11
285.0428543119633
 21
146.6912830138899
 31
0.0
  0
LINE
  5
2C7
330
1F
100
AcDbEntity
  8
0
  6
Continuous
 62
     7
370
    13
100
AcDbLine
 10
198.5428418026131
 20
-23.30870738707745
 30
0.0
 11
198.5428418026131
 21
-22.80868099747022
 31
0.0
  0
LINE
  5
2C8
330
1F
100
AcDbEntity
  8
0
  6
Continuous
 62
     7
370
    13
100
AcDbLine
 10
219.5428614309058
 20
-23.30870738707745
 30
0.0
 11
219.5428614309058
 21
-22.80868099747022
 31
0.0
  0
LINE
  5
2C9
330
1F
100
AcDbEntity
  8
0
  6
Continuous
 62
     7
370
    13
100
AcDbLine
 10
196.0428088305052
 20
146.6912830138899
 30
0.0
 11
225.5428316904436
 21
146.6912830138899
 31
0.0
  0
LINE
  5
2CA
330
1F
100
AcDbEntity
  8
0
  6
Continuous
 62
     7
370
    13
100
AcDbLine
 10
246.5428513187362
 20
146.6912830138899
 30
0.0
 11
272.8697059184196
 21
146.6912830138899
 31
0.0
  0
LINE
  5
2CB
330
1F
100
AcDbEntity
  8
0
  6
Continuous
 62
     7
370
    13
100
AcDbLine
 10
285.7489485842234
 20
136.7119360703946
 30
0.0
 11
286.0489446228021
 21
136.7119360703946
 31
0.0
  0
LINE
  5
2CC
330
1F
100
AcDbEntity
  8
0
  6
Continuous
 62
     7
370
    13
100
AcDbLine
 10
276.7389718821796
 20
140.557299347478
 30
0.0
 11
275.4014111875731
 21
141.3295590277849
 31
0.0
  0
LINE
  5
2CD
330
1F
100
AcDbEntity
  8
0
  6
Continuous
 62
     7
370
    13
100
AcDbLine
 10
274.8917841329239
 20
143.8796243316319
 30
0.0
 11
275.0305483843549
 21
143.8796243316319
 31
0.0
  0
LINE
  5
2CE
330
1F
100
AcDbEntity
  8
0
  6
Continuous
 62
     7
370
    13
100
AcDbLine
 10
275.0305483843549
 20
141.5796217105526
 30
0.0
 11
274.8917841329239
 21
141.5796217105526
 31
0.0
  0
LINE
  5
2CF
330
1F
100
AcDbEntity
  8
0
  6
Continuous
 62
     7
370
    13
100
AcDbLine
 10
188.542858378074
 20
122.6912535118463
 30
0.0
 11
194.5428286376118
 21
122.6912535118463
 31
0.0
  0
LINE
  5
2D0
330
1F
100
AcDbEntity
  8
0
  6
Continuous
 62
     7
370
    13
100
AcDbLine
 10
190.5428649605747
 20
120.1912205397384
 30
0.0
 11
196.5268506076973
 21
120.1912205397384
 31
0.0
  0
LINE
  5
2D1
330
1F
100
AcDbEntity
  8
0
  6
Continuous
 62
     7
370
    13
100
AcDbLine
 10
203.0428813572216
 20
121.1912733189529
 30
0.0
 11
202.0428780659713
 21
120.1912205397384
 31
0.0
  0
LINE
  5
2D2
330
1F
100
AcDbEntity
  8
0
  6
Continuous
 62
     7
370
    13
100
AcDbLine
 10
200.3457873119332
 20
120.7532553484052
 30
0.0
 11
200.3457873119332
 21
120.6144910969742
 31
0.0
  0
LINE
  5
2D3
330
1F
100
AcDbEntity
  8
0
  6
Continuous
 62
     7
370
    13
100
AcDbLine
 10
200.7458480139903
 20
120.2144303949171
 30
0.0
 11
201.9616188288637
 21
120.2144303949171
 31
0.0
  0
LINE
  5
2D4
330
1F
100
AcDbEntity
  8
0
  6
Continuous
 62
     7
370
    13
100
AcDbLine
 10
196.4299531739234
 20
120.2144303949171
 30
0.0
 11
197.6458229647251
 21
120.2144303949171
 31
0.0
  0
LINE
  5
2D5
330
1F
100
AcDbEntity
  8
0
  6
Continuous
 62
     7
370
    13
100
AcDbLine
 10
198.0457846908539
 20
120.6144910969742
 30
0.0
 11
198.0457846908539
 21
120.7532553484052
 31
0.0
  0
LINE
  5
2D6
330
1F
100
AcDbEntity
  8
0
  6
Continuous
 62
     7
370
    13
100
AcDbLine
 10
201.9372212625458
 20
120.1912205397384
 30
0.0
 11
202.0428780659713
 21
120.1912205397384
 31
0.0
  0
LINE
  5
2D7
330
1F
100
AcDbEntity
  8
0
  6
Continuous
 62
     7
370
    13
100
AcDbLine
 10
186.0428254059661
 20
-60.31486669496371
 30
0.0
 11
286.0428576032136
 21
-60.31486669496371
 31
0.0
  0
LINE
  5
2D8
330
1F
100
AcDbEntity
  8
0
  6
Continuous
 62
     7
370
    13
100
AcDbLine
 10
186.0428254059661
 20
-60.31486669496371
 30
0.0
 11
186.0428254059661
 21
-28.93813651516393
 31
0.0
  0
LINE
  5
2D9
330
1F
100
AcDbEntity
  8
0
  6
Continuous
 62
     7
370
    13
100
AcDbLine
 10
286.0428576032136
 20
-60.31486669496371
 30
0.0
 11
286.0428576032136
 21
-28.93813651516393
 31
0.0
  0
LINE
  5
2DA
330
1F
100
AcDbEntity
  8
0
  6
Continuous
 62
     7
370
    13
100
AcDbLine
 10
266.0428412661713
 20
-47.7641746230438
 30
0.0
 11
286.0428576032136
 21
-47.7641746230438
 31
0.0
  0
LINE
  5
2DB
330
1F
100
AcDbEntity
  8
0
  6
Continuous
 62
     7
370
    13
100
AcDbLine
 10
286.0428576032136
 20
-47.7641746230438
 30
0.0
 11
286.0428576032136
 21
-29.83461098544649
 31
0.0
  0
LINE
  5
2DC
330
1F
100
AcDbEntity
  8
0
  6
Continuous
 62
     7
370
    13
100
AcDbLine
 10
266.0428412661713
 20
-47.7641746230438
 30
0.0
 11
266.0428412661713
 21
32.02237490387051
 31
0.0
  0
LINE
  5
2DD
330
1F
100
AcDbEntity
  8
0
  6
Continuous
 62
     7
370
    13
100
AcDbLine
 10
314.8153084144578
 20
-23.30860841114918
 30
0.0
 11
314.8153084144578
 21
56.8913883121204
 31
0.0
  0
LINE
  5
2DE
330
1F
100
AcDbEntity
  8
0
  6
Continuous
 62
     7
370
    13
100
AcDbLine
 10
314.8153084144578
 20
-23.30860841114918
 30
0.0
 11
289.3618668937706
 21
-23.30860841114918
 31
0.0
  0
LINE
  5
2DF
330
1F
100
AcDbEntity
  8
0
  6
Continuous
 62
     7
370
    13
100
AcDbLine
 10
283.0428477294627
 20
119.4912627750309
 30
0.0
 11
281.7428978875978
 21
119.4912627750309
 31
0.0
  0
LINE
  5
2E0
330
1F
100
AcDbEntity
  8
0
  6
Continuous
 62
     7
370
    13
100
AcDbLine
 10
284.0429005086771
 20
117.4913551684585
 30
0.0
 11
283.7429044700984
 21
117.1912848979337
 31
0.0
  0
LINE
  5
2E1
330
1F
100
AcDbEntity
  8
0
  6
Continuous
 62
     7
370
    13
100
AcDbLine
 10
254.0187506205984
 20
106.9438369087438
 30
0.0
 11
262.7120538401505
 21
109.2731858925545
 31
0.0
  0
LINE
  5
2E2
330
1F
100
AcDbEntity
  8
0
  6
Continuous
 62
     7
370
    13
100
AcDbLine
 10
254.0187506205984
 20
106.9438369087438
 30
0.0
 11
255.8126893204462
 21
100.2486597290554
 31
0.0
  0
LINE
  5
2E3
330
1F
100
AcDbEntity
  8
0
  6
Continuous
 62
     7
370
    13
100
AcDbLine
 10
262.7120538401505
 20
109.2731858925545
 30
0.0
 11
264.5060420279624
 21
102.5780334568481
 31
0.0
  0
LINE
  5
2E4
330
1F
100
AcDbEntity
  8
0
  6
Continuous
 62
     7
370
    13
100
AcDbLine
 10
301.2869321231119
 20
16.09529224698053
 30
0.0
 11
301.2869321231119
 21
99.0952932369546
 31
0.0
  0
LINE
  5
2E5
330
1F
100
AcDbEntity
  8
0
  6
Continuous
 62
     7
370
    13
100
AcDbLine
 10
301.2869321231119
 20
16.09529224698053
 30
0.0
 11
290.0132274776988
 21
16.09529224698053
 31
0.0
  0
LINE
  5
2E6
330
1F
100
AcDbEntity
  8
0
  6
Continuous
 62
     7
370
    13
100
AcDbLine
 10
301.2869321231119
 20
99.0952932369546
 30
0.0
 11
290.0132274776988
 21
99.0952932369546
 31
0.0
  0
LINE
  5
2E7
330
1F
100
AcDbEntity
  8
0
  6
Continuous
 62
     7
370
    13
100
AcDbLine
 10
252.3163646543981
 20
70.24262243584963
 30
0.0
 11
271.6348822373548
 21
75.4189892522918
 31
0.0
  0
LINE
  5
2E8
330
1F
100
AcDbEntity
  8
0
  6
Continuous
 62
     7
370
    13
100
AcDbLine
 10
252.3163646543981
 20
70.24262243584963
 30
0.0
 11
255.1127315557387
 21
59.80652632738202
 31
0.0
  0
LINE
  5
2E9
330
1F
100
AcDbEntity
  8
0
  6
Continuous
 62
     7
370
    13
100
AcDbLine
 10
271.6348822373548
 20
75.4189892522918
 30
0.0
 11
274.4312491386954
 21
64.98291788780625
 31
0.0
  0
LINE
  5
2EA
330
1F
100
AcDbEntity
  8
0
  6
Continuous
 62
     7
370
    13
100
AcDbLine
 10
314.8153084144578
 20
57.69138599632424
 30
0.0
 11
289.6911598071165
 21
57.69138599632424
 31
0.0
  0
LINE
  5
2EB
330
1F
100
AcDbEntity
  8
0
  6
Continuous
 62
     7
370
    13
100
AcDbLine
 10
314.8153084144578
 20
57.69138599632424
 30
0.0
 11
289.3618668937706
 21
57.69138599632424
 31
0.0
  0
LINE
  5
2EC
330
1F
100
AcDbEntity
  8
0
  6
Continuous
 62
     7
370
    13
100
AcDbLine
 10
330.4919572288491
 20
-23.30860841114918
 30
0.0
 11
330.4919572288491
 21
146.6912830138899
 31
0.0
  0
LINE
  5
2ED
330
1F
100
AcDbEntity
  8
0
  6
Continuous
 62
     7
370
    13
100
AcDbLine
 10
330.4919572288491
 20
-23.30860841114918
 30
0.0
 11
290.5005354605237
 21
-23.30860841114918
 31
0.0
  0
LINE
  5
2EE
330
1F
100
AcDbEntity
  8
0
  6
Continuous
 62
     7
370
    13
100
AcDbLine
 10
330.4919572288491
 20
146.6912830138899
 30
0.0
 11
290.5005354605237
 21
146.6912830138899
 31
0.0
  0
LINE
  5
2EF
330
1F
100
AcDbEntity
  8
0
  6
Continuous
 62
     7
370
    13
100
AcDbLine
 10
314.8153084144578
 20
57.69138599632424
 30
0.0
 11
314.8153084144578
 21
146.6912830138899
 31
0.0
  0
LINE
  5
2F0
330
1F
100
AcDbEntity
  8
0
  6
Continuous
 62
     7
370
    13
100
AcDbLine
 10
314.8153084144578
 20
57.69138599632424
 30
0.0
 11
297.2653916937124
 21
57.69138599632424
 31
0.0
  0
LINE
  5
2F1
330
1F
100
AcDbEntity
  8
0
  6
Continuous
 62
     7
370
    13
100
AcDbLine
 10
314.8153084144578
 20
146.6912830138899
 30
0.0
 11
297.2653916937124
 21
146.6912830138899
 31
0.0
  0
LINE
  5
2F2
330
1F
100
AcDbEntity
  8
0
  6
Continuous
 62
     7
370
    13
100
AcDbLine
 10
314.8153084144578
 20
146.6912830138899
 30
0.0
 11
314.1865143421746
 21
146.6912830138899
 31
0.0
  0
LINE
  5
2F3
330
1F
100
AcDbEntity
  8
0
  6
Continuous
 62
     7
370
    13
100
AcDbLine
 10
330.4919572288491
 20
146.6912830138899
 30
0.0
 11
330.4919572288491
 21
147.5819179044047
 31
0.0
  0
LINE
  5
2F4
330
1F
100
AcDbEntity
  8
0
  6
Continuous
 62
     7
370
    13
100
AcDbLine
 10
314.8153084144578
 20
57.69138599632424
 30
0.0
 11
314.1865143421746
 21
57.69138599632424
 31
0.0
  0
LINE
  5
2F5
330
1F
100
AcDbEntity
  8
0
  6
Continuous
 62
     7
370
    13
100
AcDbLine
 10
330.4919572288491
 20
-23.30860841114918
 30
0.0
 11
330.1183725876035
 21
-23.30860841114918
 31
0.0
  0
LINE
  5
2F6
330
1F
100
AcDbEntity
  8
0
  6
Continuous
 62
     7
370
    13
100
AcDbLine
 10
314.8153084144578
 20
-23.30860841114918
 30
0.0
 11
314.5328806031466
 21
-23.30860841114918
 31
0.0
  0
LINE
  5
2F7
330
1F
100
AcDbEntity
  8
0
  6
Continuous
 62
     7
370
    13
100
AcDbLine
 10
286.0428576032136
 20
-47.7641746230438
 30
0.0
 11
286.2359101512993
 21
-47.7641746230438
 31
0.0
  0
LINE
  5
2F8
330
1F
100
AcDbEntity
  8
0
  6
Continuous
 62
     7
370
    13
100
AcDbLine
 10
266.0428412661713
 20
-47.7641746230438
 30
0.0
 11
265.3978151416522
 21
-47.7641746230438
 31
0.0
  0
LINE
  5
2F9
330
1F
100
AcDbEntity
  8
0
  6
Continuous
 62
     7
370
    13
100
AcDbLine
 10
286.0428576032136
 20
-60.31486669496371
 30
0.0
 11
286.0428576032136
 21
-59.74464162823278
 31
0.0
  0
LINE
  5
2FA
330
1F
100
AcDbEntity
  8
0
  6
Continuous
 62
     7
370
    13
100
AcDbLine
 10
186.0428254059661
 20
-60.31486669496371
 30
0.0
 11
186.0428254059661
 21
-59.97619581241452
 31
0.0
  0
LINE
  5
2FB
330
1F
100
AcDbEntity
  8
0
  6
Continuous
 62
     7
370
    13
100
AcDbLine
 10
283.7429044700984
 20
-3.003053383545193
 30
0.0
 11
284.0429005086771
 21
-3.302999934159743
 31
0.0
  0
LINE
  5
2FC
330
1F
100
AcDbEntity
  8
0
  6
Continuous
 62
     7
370
    13
100
AcDbLine
 10
192.3212644396845
 20
-162.5133893268612
 30
0.0
 11
323.207081468543
 21
-162.5133893268612
 31
0.0
  0
LINE
  5
2FD
330
1F
100
AcDbEntity
  8
0
  6
Continuous
 62
     7
370
    13
100
AcDbLine
 10
323.207081468543
 20
-162.5133893268612
 30
0.0
 11
323.207081468543
 21
-134.7225570281917
 31
0.0
  0
LINE
  5
2FE
330
1F
100
AcDbEntity
  8
0
  6
Continuous
 62
     7
370
    13
100
AcDbLine
 10
323.207081468543
 20
-134.7225570281917
 30
0.0
 11
192.3212644396845
 21
-134.7225570281917
 31
0.0
  0
LINE
  5
2FF
330
1F
100
AcDbEntity
  8
0
  6
Continuous
 62
     7
370
    13
100
AcDbLine
 10
192.3212644396845
 20
-134.7225570281917
 30
0.0
 11
192.3212644396845
 21
-162.5133893268612
 31
0.0
  0
ARC
  5
300
330
1F
100
AcDbEntity
  8
0
  6
Continuous
 62
     7
370
    13
100
AcDbCircle
 10
-334.033353058232
 20
146.1913061122468
 30
0.0
 40
0.5000000024701023
100
AcDbArc
 50
90.0
 51
180.0
  0
ARC
  5
301
330
1F
100
AcDbEntity
  8
0
  6
Continuous
 62
     7
370
    13
100
AcDbCircle
 10
-332.2333644547689
 20
123.7913709545392
 30
0.0
 40
0.3000000014820614
100
AcDbArc
 50
131.4100036621094
 51
208.3010101318359
  0
ARC
  5
302
330
1F
100
AcDbEntity
  8
0
  6
Continuous
 62
     7
370
    13
100
AcDbCircle
 10
-331.5333695740883
 20
122.491322136746
 30
0.0
 40
0.3000000014820614
100
AcDbArc
 50
208.3010101318359
 51
0.0
  0
ARC
  5
303
330
1F
100
AcDbEntity
  8
0
  6
Continuous
 62
     7
370
    13
100
AcDbCircle
 10
-332.2333644547689
 20
124.6913590702752
 30
0.0
 40
1.000000004940205
100
AcDbArc
 50
0.0
 51
90.0
  0
ARC
  5
304
330
1F
100
AcDbEntity
  8
0
  6
Continuous
 62
     7
370
    13
100
AcDbCircle
 10
-313.5333845635287
 20
122.1913260981673
 30
0.0
 40
0.5000000024701023
100
AcDbArc
 50
180.0
 51
291.801025390625
  0
ARC
  5
305
330
1F
100
AcDbEntity
  8
0
  6
Continuous
 62
     7
370
    13
100
AcDbCircle
 10
-312.0333548826711
 20
122.7913181753247
 30
0.0
 40
0.5000000024701023
100
AcDbArc
 50
291.801025390625
 51
111.8010177612305
  0
ARC
  5
306
330
1F
100
AcDbEntity
  8
0
  6
Continuous
 62
     7
370
    13
100
AcDbCircle
 10
-312.833377310857
 20
123.2253276207775
 30
0.0
 40
0.2000000009880409
100
AcDbArc
 50
180.0
 51
291.801025390625
  0
ARC
  5
307
330
1F
100
AcDbEntity
  8
0
  6
Continuous
 62
     7
370
    13
100
AcDbCircle
 10
-308.533355735286
 20
139.1913325614587
 30
0.0
 40
0.5000000024701023
100
AcDbArc
 50
270.0
 51
0.0
  0
ARC
  5
308
330
1F
100
AcDbEntity
  8
0
  6
Continuous
 62
     7
370
    13
100
AcDbCircle
 10
-309.5333590265363
 20
144.1913985056744
 30
0.0
 40
0.5000000024701023
100
AcDbArc
 50
270.0
 51
0.0
  0
ARC
  5
309
330
1F
100
AcDbEntity
  8
0
  6
Continuous
 62
     7
370
    13
100
AcDbCircle
 10
-309.5333590265363
 20
146.1913061122468
 30
0.0
 40
0.5000000024701023
100
AcDbArc
 50
0.0
 51
90.0
  0
ARC
  5
30A
330
1F
100
AcDbEntity
  8
0
  6
Continuous
 62
     7
370
    13
100
AcDbCircle
 10
-309.5333590265363
 20
140.1913853406732
 30
0.0
 40
0.5000000024701023
100
AcDbArc
 50
0.0
 51
90.0
  0
ARC
  5
30B
330
1F
100
AcDbEntity
  8
0
  6
Continuous
 62
     7
370
    13
100
AcDbCircle
 10
-240.0333529804775
 20
-22.30865460786299
 30
0.0
 40
1.000000004940205
100
AcDbArc
 50
180.0
 51
270.0
  0
ARC
  5
30C
330
1F
100
AcDbEntity
  8
0
  6
Continuous
 62
     7
370
    13
100
AcDbCircle
 10
-236.0333398154762
 20
-22.30865460786299
 30
0.0
 40
1.000000004940205
100
AcDbArc
 50
270.0
 51
0.0
  0
ARC
  5
30D
330
1F
100
AcDbEntity
  8
0
  6
Continuous
 62
     7
370
    13
100
AcDbCircle
 10
-237.2633384200381
 20
-13.30864973059215
 30
0.0
 40
0.5000000024701023
100
AcDbArc
 50
293.5780029296875
 51
66.42201232910158
  0
ARC
  5
30E
330
1F
100
AcDbEntity
  8
0
  6
Continuous
 62
     7
370
    13
100
AcDbCircle
 10
-240.5333298821206
 20
-17.8086645412186
 30
0.0
 40
0.5000000024701023
100
AcDbArc
 50
90.0
 51
180.0
  0
ARC
  5
30F
330
1F
100
AcDbEntity
  8
0
  6
Continuous
 62
     7
370
    13
100
AcDbCircle
 10
-237.2633384200381
 20
-4.808646498946473
 30
0.0
 40
0.5000000024701023
100
AcDbArc
 50
293.5780029296875
 51
66.42201232910158
  0
ARC
  5
310
330
1F
100
AcDbEntity
  8
0
  6
Continuous
 62
     7
370
    13
100
AcDbCircle
 10
-251.0184438190627
 20
136.6763542241824
 30
0.0
 40
1.014999980850263
100
AcDbArc
 50
89.9940185546875
 51
270.0060119628906
  0
ARC
  5
311
330
1F
100
AcDbEntity
  8
0
  6
Continuous
 62
     7
370
    13
100
AcDbCircle
 10
-237.2633384200381
 20
127.6914184319903
 30
0.0
 40
0.5000000024701023
100
AcDbArc
 50
293.5780029296875
 51
66.42201232910158
  0
ARC
  5
312
330
1F
100
AcDbEntity
  8
0
  6
Continuous
 62
     7
370
    13
100
AcDbCircle
 10
-237.2633384200381
 20
119.1913657123805
 30
0.0
 40
0.5000000024701023
100
AcDbArc
 50
293.5780029296875
 51
66.42201232910158
  0
ARC
  5
313
330
1F
100
AcDbEntity
  8
0
  6
Continuous
 62
     7
370
    13
100
AcDbCircle
 10
-236.0333398154762
 20
136.6913985652791
 30
0.0
 40
1.000000004940205
100
AcDbArc
 50
0.0
 51
90.0
  0
ARC
  5
314
330
1F
100
AcDbEntity
  8
0
  6
Continuous
 62
     7
370
    13
100
AcDbCircle
 10
-240.5333298821206
 20
132.1913590106706
 30
0.0
 40
0.5000000024701023
100
AcDbArc
 50
180.0
 51
270.0
  0
ARC
  5
315
330
1F
100
AcDbEntity
  8
0
  6
Continuous
 62
     7
370
    13
100
AcDbCircle
 10
-320.0333255387141
 20
-11.30864314809151
 30
0.0
 40
2.999999821508254
100
AcDbArc
 50
323.1300048828125
 51
16.08999824523925
  0
ARC
  5
316
330
1F
100
AcDbEntity
  8
0
  6
Continuous
 62
     7
370
    13
100
AcDbCircle
 10
-329.5333629915876
 20
-20.80867441496957
 30
0.0
 40
0.5000000024701023
100
AcDbArc
 50
0.0
 51
90.0
  0
ARC
  5
317
330
1F
100
AcDbEntity
  8
0
  6
Continuous
 62
     7
370
    13
100
AcDbCircle
 10
-329.5333629915876
 20
-22.80863150950609
 30
0.0
 40
0.5000000024701023
100
AcDbArc
 50
270.0
 51
0.0
  0
ARC
  5
318
330
1F
100
AcDbEntity
  8
0
  6
Continuous
 62
     7
370
    13
100
AcDbCircle
 10
-322.0333444932057
 20
-12.80862334098492
 30
0.0
 40
0.5000000024701023
100
AcDbArc
 50
216.8700256347656
 51
270.0
  0
ARC
  5
319
330
1F
100
AcDbEntity
  8
0
  6
Continuous
 62
     7
370
    13
100
AcDbCircle
 10
-320.0333255387141
 20
-11.30864314809151
 30
0.0
 40
2.999999821508254
100
AcDbArc
 50
163.9100036621094
 51
216.8700103759766
  0
ARC
  5
31A
330
1F
100
AcDbEntity
  8
0
  6
Continuous
 62
     7
370
    13
100
AcDbCircle
 10
-318.0333684441775
 20
-12.80862334098492
 30
0.0
 40
0.5000000024701023
100
AcDbArc
 50
270.0
 51
323.1300048828125
  0
ARC
  5
31B
330
1F
100
AcDbEntity
  8
0
  6
Continuous
 62
     7
370
    13
100
AcDbCircle
 10
-316.0333680476724
 20
-10.03860878054547
 30
0.0
 40
0.5000000024701023
100
AcDbArc
 50
23.57800483703613
 51
156.4220123291016
  0
ARC
  5
31C
330
1F
100
AcDbEntity
  8
0
  6
Continuous
 62
     7
370
    13
100
AcDbCircle
 10
-310.5333623177867
 20
-20.80867441496957
 30
0.0
 40
0.5000000024701023
100
AcDbArc
 50
90.0
 51
180.0
  0
ARC
  5
31D
330
1F
100
AcDbEntity
  8
0
  6
Continuous
 62
     7
370
    13
100
AcDbCircle
 10
-310.5333623177867
 20
-22.80863150950609
 30
0.0
 40
0.5000000024701023
100
AcDbArc
 50
180.0
 51
270.0
  0
ARC
  5
31E
330
1F
100
AcDbEntity
  8
0
  6
Continuous
 62
     7
370
    13
100
AcDbCircle
 10
-311.533377981028
 20
-15.80865795871796
 30
0.0
 40
0.5000000024701023
100
AcDbArc
 50
90.0
 51
180.0
  0
ARC
  5
31F
330
1F
100
AcDbEntity
  8
0
  6
Continuous
 62
     7
370
    13
100
AcDbCircle
 10
-310.5333623177867
 20
-16.80866124996828
 30
0.0
 40
0.5000000024701023
100
AcDbArc
 50
180.0
 51
270.0
  0
ARC
  5
320
330
1F
100
AcDbEntity
  8
0
  6
Continuous
 62
     7
370
    13
100
AcDbCircle
 10
-294.0333698721115
 20
-20.85860777078051
 30
0.0
 40
0.5000000024701023
100
AcDbArc
 50
0.0
 51
90.0
  0
ARC
  5
321
330
1F
100
AcDbEntity
  8
0
  6
Continuous
 62
     7
370
    13
100
AcDbCircle
 10
-294.0333698721115
 20
-17.85864738499367
 30
0.0
 40
0.5000000024701023
100
AcDbArc
 50
270.0
 51
0.0
  0
ARC
  5
322
330
1F
100
AcDbEntity
  8
0
  6
Continuous
 62
     7
370
    13
100
AcDbCircle
 10
-296.5333533562552
 20
-17.35862099538645
 30
0.0
 40
1.000000004940205
100
AcDbArc
 50
90.0
 51
180.0
  0
ARC
  5
323
330
1F
100
AcDbEntity
  8
0
  6
Continuous
 62
     7
370
    13
100
AcDbCircle
 10
-294.5333467737546
 20
-17.35862099538645
 30
0.0
 40
1.000000004940205
100
AcDbArc
 50
0.0
 51
90.0
  0
ARC
  5
324
330
1F
100
AcDbEntity
  8
0
  6
Continuous
 62
     7
370
    13
100
AcDbCircle
 10
-299.5333632300062
 20
-8.808610175983631
 30
0.0
 40
0.5000000024701023
100
AcDbArc
 50
270.0
 51
0.0
  0
ARC
  5
325
330
1F
100
AcDbEntity
  8
0
  6
Continuous
 62
     7
370
    13
100
AcDbCircle
 10
-312.5333812722783
 20
124.191332680668
 30
0.0
 40
0.5000000024701023
100
AcDbArc
 50
90.0
 51
180.0
  0
ARC
  5
326
330
1F
100
AcDbEntity
  8
0
  6
Continuous
 62
     7
370
    13
100
AcDbCircle
 10
-332.3333548863011
 20
124.3913630316965
 30
0.0
 40
0.3000000014820614
100
AcDbArc
 50
315.1860046386719
 51
90.0
  0
ARC
  5
327
330
1F
100
AcDbEntity
  8
0
  6
Continuous
 62
     7
370
    13
100
AcDbCircle
 10
-323.4102481192986
 20
121.7713712345285
 30
0.0
 40
0.5000000024701023
100
AcDbArc
 50
270.0
 51
15.23999786376953
  0
ARC
  5
328
330
1F
100
AcDbEntity
  8
0
  6
Continuous
 62
     7
370
    13
100
AcDbCircle
 10
-322.0333444932057
 20
124.191332680668
 30
0.0
 40
0.5000000024701023
100
AcDbArc
 50
90.0
 51
143.1299896240234
  0
ARC
  5
329
330
1F
100
AcDbEntity
  8
0
  6
Continuous
 62
     7
370
    13
100
AcDbCircle
 10
-320.0333255387141
 20
122.6913524877746
 30
0.0
 40
2.999999821508254
100
AcDbArc
 50
143.1299896240234
 51
195.239990234375
  0
ARC
  5
32A
330
1F
100
AcDbEntity
  8
0
  6
Continuous
 62
     7
370
    13
100
AcDbCircle
 10
-316.6564648180847
 20
121.7713712345285
 30
0.0
 40
0.5000000024701023
100
AcDbArc
 50
164.760009765625
 51
270.0
  0
ARC
  5
32B
330
1F
100
AcDbEntity
  8
0
  6
Continuous
 62
     7
370
    13
100
AcDbCircle
 10
-318.0333684441775
 20
124.191332680668
 30
0.0
 40
0.5000000024701023
100
AcDbArc
 50
36.87002182006837
 51
90.0
  0
ARC
  5
32C
330
1F
100
AcDbEntity
  8
0
  6
Continuous
 62
     7
370
    13
100
AcDbCircle
 10
-320.0333255387141
 20
122.6913524877746
 30
0.0
 40
2.999999821508254
100
AcDbArc
 50
344.760009765625
 51
36.87002182006837
  0
ARC
  5
32D
330
1F
100
AcDbEntity
  8
0
  6
Continuous
 62
     7
370
    13
100
AcDbCircle
 10
-311.0333392194298
 20
121.2713943328854
 30
0.0
 40
2.029999961700526
100
AcDbArc
 50
270.0
 51
0.0
  0
ARC
  5
32E
330
1F
100
AcDbEntity
  8
0
  6
Continuous
 62
     7
370
    13
100
AcDbCircle
 10
-300.0333401316493
 20
124.8913894213038
 30
0.0
 40
0.5000000024701023
100
AcDbArc
 50
203.5780029296875
 51
336.4219970703125
  0
ARC
  5
32F
330
1F
100
AcDbEntity
  8
0
  6
Continuous
 62
     7
370
    13
100
AcDbCircle
 10
-291.5333740159767
 20
139.1913325614587
 30
0.0
 40
0.5000000024701023
100
AcDbArc
 50
180.0
 51
270.0
  0
ARC
  5
330
330
1F
100
AcDbEntity
  8
0
  6
Continuous
 62
     7
370
    13
100
AcDbCircle
 10
-290.5333707247264
 20
144.1913985056744
 30
0.0
 40
0.5000000024701023
100
AcDbArc
 50
180.0
 51
270.0
  0
ARC
  5
331
330
1F
100
AcDbEntity
  8
0
  6
Continuous
 62
     7
370
    13
100
AcDbCircle
 10
-290.5333707247264
 20
140.1913853406732
 30
0.0
 40
0.5000000024701023
100
AcDbArc
 50
90.0
 51
180.0
  0
ARC
  5
332
330
1F
100
AcDbEntity
  8
0
  6
Continuous
 62
     7
370
    13
100
AcDbCircle
 10
-290.5333707247264
 20
146.1913061122468
 30
0.0
 40
0.5000000024701023
100
AcDbArc
 50
90.0
 51
180.0
  0
ARC
  5
333
330
1F
100
AcDbEntity
  8
0
  6
Continuous
 62
     7
370
    13
100
AcDbCircle
 10
-238.6667181069424
 20
119.1913657123805
 30
0.0
 40
0.5666670077627458
100
AcDbArc
 50
118.0719757080078
 51
241.928009033203
  0
ARC
  5
334
330
1F
100
AcDbEntity
  8
0
  6
Continuous
 62
     7
370
    13
100
AcDbCircle
 10
-240.4633291568534
 20
116.1913805826116
 30
0.0
 40
0.5000000024701023
100
AcDbArc
 50
180.0
 51
270.0
  0
ARC
  5
335
330
1F
100
AcDbEntity
  8
0
  6
Continuous
 62
     7
370
    13
100
AcDbCircle
 10
-239.4333609033201
 20
116.1913805826116
 30
0.0
 40
0.5000000024701023
100
AcDbArc
 50
270.0
 51
0.0
  0
ARC
  5
336
330
1F
100
AcDbEntity
  8
0
  6
Continuous
 62
     7
370
    13
100
AcDbCircle
 10
-252.0333182435352
 20
135.6913457860646
 30
0.0
 40
2.029999961700526
100
AcDbArc
 50
180.0
 51
247.1659851074218
  0
ARC
  5
337
330
1F
100
AcDbEntity
  8
0
  6
Continuous
 62
     7
370
    13
100
AcDbCircle
 10
-238.1333368295091
 20
124.6913590702752
 30
0.0
 40
1.000000004940205
100
AcDbArc
 50
270.0
 51
0.0
  0
ARC
  5
338
330
1F
100
AcDbEntity
  8
0
  6
Continuous
 62
     7
370
    13
100
AcDbCircle
 10
-236.8666676435241
 20
127.6914184319903
 30
0.0
 40
0.5666670077627458
100
AcDbArc
 50
118.0719757080078
 51
241.928009033203
  0
ARC
  5
339
330
1F
100
AcDbEntity
  8
0
  6
Continuous
 62
     7
370
    13
100
AcDbCircle
 10
-239.9633522552103
 20
124.7213487765403
 30
0.0
 40
1.000000004940205
100
AcDbArc
 50
90.0
 51
180.0
  0
ARC
  5
33A
330
1F
100
AcDbEntity
  8
0
  6
Continuous
 62
     7
370
    13
100
AcDbCircle
 10
-242.5333612086033
 20
131.6913326210633
 30
0.0
 40
2.029999961700526
100
AcDbArc
 50
247.1659851074218
 51
270.0
  0
ARC
  5
33B
330
1F
100
AcDbEntity
  8
0
  6
Continuous
 62
     7
370
    13
100
AcDbCircle
 10
-246.8570009150571
 20
144.1614087994094
 30
0.0
 40
0.5000000024701023
100
AcDbArc
 50
90.0
 51
204.8350219726562
  0
ARC
  5
33C
330
1F
100
AcDbEntity
  8
0
  6
Continuous
 62
     7
370
    13
100
AcDbCircle
 10
-248.033354566498
 20
141.1913391439593
 30
0.0
 40
0.5000000024701023
100
AcDbArc
 50
270.0
 51
323.1300048828125
  0
ARC
  5
33D
330
1F
100
AcDbEntity
  8
0
  6
Continuous
 62
     7
370
    13
100
AcDbCircle
 10
-250.0333611489987
 20
142.691418312781
 30
0.0
 40
2.999999821508254
100
AcDbArc
 50
323.1300048828125
 51
24.83501625061038
  0
ARC
  5
33E
330
1F
100
AcDbEntity
  8
0
  6
Continuous
 62
     7
370
    13
100
AcDbCircle
 10
-328.5333473283463
 20
-15.80865795871796
 30
0.0
 40
0.5000000024701023
100
AcDbArc
 50
0.0
 51
90.0
  0
ARC
  5
33F
330
1F
100
AcDbEntity
  8
0
  6
Continuous
 62
     7
370
    13
100
AcDbCircle
 10
-316.6704327959615
 20
-10.33862956310622
 30
0.0
 40
0.5000000024701023
100
AcDbArc
 50
90.0
 51
196.0899963378906
  0
ARC
  5
340
330
1F
100
AcDbEntity
  8
0
  6
Continuous
 62
     7
370
    13
100
AcDbCircle
 10
-323.3962801414218
 20
-10.33862956310622
 30
0.0
 40
0.5000000024701023
100
AcDbArc
 50
343.9100036621094
 51
90.0
  0
ARC
  5
341
330
1F
100
AcDbEntity
  8
0
  6
Continuous
 62
     7
370
    13
100
AcDbCircle
 10
-296.9333398263661
 20
119.7913577895379
 30
0.0
 40
0.6000000029641228
100
AcDbArc
 50
180.0
 51
0.0
  0
ARC
  5
342
330
1F
100
AcDbEntity
  8
0
  6
Continuous
 62
     7
370
    13
100
AcDbCircle
 10
-287.0033571270942
 20
124.6613693640102
 30
0.0
 40
2.000000009880409
100
AcDbArc
 50
270.0
 51
0.0
  0
CIRCLE
  5
343
330
1F
100
AcDbEntity
  8
0
  6
Continuous
 62
     7
370
    13
100
AcDbCircle
 10
-255.0333281172861
 20
57.19133486273495
 30
0.0
 40
9.999999662777327
  0
CIRCLE
  5
344
330
1F
100
AcDbEntity
  8
0
  6
Continuous
 62
     7
370
    13
100
AcDbCircle
 10
-263.0333668192798
 20
98.69137247369508
 30
0.0
 40
4.500000118887101
  0
CIRCLE
  5
345
330
1F
100
AcDbEntity
  8
0
  6
Continuous
 62
     7
370
    13
100
AcDbCircle
 10
-263.0333668192798
 20
15.69137148372101
 30
0.0
 40
4.500000118887101
  0
ARC
  5
346
330
1F
100
AcDbEntity
  8
0
  6
Continuous
 62
     7
370
    13
100
AcDbCircle
 10
-76.16625751071115
 20
-22.50861072694534
 30
0.0
 40
0.8000000039521638
100
AcDbArc
 50
270.0
 51
0.0
  0
ARC
  5
347
330
1F
100
AcDbEntity
  8
0
  6
Continuous
 62
     7
370
    13
100
AcDbCircle
 10
-76.16625751071115
 20
-21.70861304274149
 30
0.0
 40
0.8000000039521638
100
AcDbArc
 50
0.0
 51
90.00001525878905
  0
ARC
  5
348
330
1F
100
AcDbEntity
  8
0
  6
Continuous
 62
     7
370
    13
100
AcDbCircle
 10
-78.96626177741564
 20
-19.90861206728732
 30
0.0
 40
1.200000005928246
100
AcDbArc
 50
180.0
 51
270.0
  0
ARC
  5
349
330
1F
100
AcDbEntity
  8
0
  6
Continuous
 62
     7
370
    13
100
AcDbCircle
 10
-78.76625617036916
 20
-19.70860646024084
 30
0.0
 40
1.400000006916287
100
AcDbArc
 50
90.00001525878905
 51
180.0
  0
ARC
  5
34A
330
1F
100
AcDbEntity
  8
0
  6
Continuous
 62
     7
370
    13
100
AcDbCircle
 10
-76.16625751071115
 20
-17.70862462172227
 30
0.0
 40
0.8000000039521638
100
AcDbArc
 50
270.0
 51
0.0
  0
ARC
  5
34B
330
1F
100
AcDbEntity
  8
0
  6
Continuous
 62
     7
370
    13
100
AcDbCircle
 10
-76.16625751071115
 20
-17.60860944620799
 30
0.0
 40
0.8000000039521638
100
AcDbArc
 50
0.0
 51
90.00001525878905
  0
ARC
  5
34C
330
1F
100
AcDbEntity
  8
0
  6
Continuous
 62
     7
370
    13
100
AcDbCircle
 10
-79.06625220894784
 20
-15.80860847075382
 30
0.0
 40
1.000000004940205
100
AcDbArc
 50
180.0
 51
270.0
  0
ARC
  5
34D
330
1F
100
AcDbEntity
  8
0
  6
Continuous
 62
     7
370
    13
100
AcDbCircle
 10
-78.56625056332268
 20
-10.80861675848428
 30
0.0
 40
1.500000007410307
100
AcDbArc
 50
90.00001525878905
 51
180.0
  0
ARC
  5
34E
330
1F
100
AcDbEntity
  8
0
  6
Continuous
 62
     7
370
    13
100
AcDbCircle
 10
-53.56624251401081
 20
-11.60861444268812
 30
0.0
 40
2.259999914508683
100
AcDbArc
 50
257.5888977050781
 51
162.1222076416015
  0
ARC
  5
34F
330
1F
100
AcDbEntity
  8
0
  6
Continuous
 62
     7
370
    13
100
AcDbCircle
 10
-54.26624976668245
 20
-14.78861204199347
 30
0.0
 40
1.000000004940205
100
AcDbArc
 50
77.58889770507812
 51
149.6222229003906
  0
ARC
  5
350
330
1F
100
AcDbEntity
  8
0
  6
Continuous
 62
     7
370
    13
100
AcDbCircle
 10
-56.66624281929398
 20
-10.6086111514378
 30
0.0
 40
1.000000004940205
100
AcDbArc
 50
270.0
 51
342.1222229003906
  0
ARC
  5
351
330
1F
100
AcDbEntity
  8
0
  6
Continuous
 62
     7
370
    13
100
AcDbCircle
 10
-56.56625238776178
 20
-22.50861072694534
 30
0.0
 40
0.8000000039521638
100
AcDbArc
 50
180.0
 51
270.0
  0
ARC
  5
352
330
1F
100
AcDbEntity
  8
0
  6
Continuous
 62
     7
370
    13
100
AcDbCircle
 10
-56.56625238776178
 20
-21.70861304274149
 30
0.0
 40
0.8000000039521638
100
AcDbArc
 50
90.00001525878905
 51
180.0
  0
ARC
  5
353
330
1F
100
AcDbEntity
  8
0
  6
Continuous
 62
     7
370
    13
100
AcDbCircle
 10
-53.96625372810377
 20
-19.70860646024084
 30
0.0
 40
1.400000006916287
100
AcDbArc
 50
270.0
 51
0.0
  0
ARC
  5
354
330
1F
100
AcDbEntity
  8
0
  6
Continuous
 62
     7
370
    13
100
AcDbCircle
 10
-53.96625372810377
 20
-19.70860646024084
 30
0.0
 40
1.400000006916287
100
AcDbArc
 50
0.0
 51
90.00001525878905
  0
ARC
  5
355
330
1F
100
AcDbEntity
  8
0
  6
Continuous
 62
     7
370
    13
100
AcDbCircle
 10
-56.56625238776178
 20
-17.70862462172227
 30
0.0
 40
0.8000000039521638
100
AcDbArc
 50
180.0
 51
270.0
  0
ARC
  5
356
330
1F
100
AcDbEntity
  8
0
  6
Continuous
 62
     7
370
    13
100
AcDbCircle
 10
-56.56625238776178
 20
-17.60860944620799
 30
0.0
 40
0.8000000039521638
100
AcDbArc
 50
90.00001525878905
 51
180.0
  0
ARC
  5
357
330
1F
100
AcDbEntity
  8
0
  6
Continuous
 62
     7
370
    13
100
AcDbCircle
 10
-54.10625517863809
 20
-16.36861427289114
 30
0.0
 40
0.4400000021736901
100
AcDbArc
 50
270.0
 51
0.0
  0
ARC
  5
358
330
1F
100
AcDbEntity
  8
0
  6
Continuous
 62
     7
370
    13
100
AcDbCircle
 10
-54.10625517863809
 20
-16.30861011637899
 30
0.0
 40
0.4400000021736901
100
AcDbArc
 50
0.0
 51
83.4444580078125
  0
ARC
  5
359
330
1F
100
AcDbEntity
  8
0
  6
Continuous
 62
     7
370
    13
100
AcDbCircle
 10
-53.56624251401081
 20
-11.60861444268812
 30
0.0
 40
4.2999999245867
100
AcDbArc
 50
257.3999938964844
 51
263.4444580078126
  0
ARC
  5
35A
330
1F
100
AcDbEntity
  8
0
  6
Continuous
 62
     7
370
    13
100
AcDbCircle
 10
-54.28624290419248
 20
-14.8286230609956
 30
0.0
 40
1.000000004940205
100
AcDbArc
 50
150.022216796875
 51
257.3999938964844
  0
ARC
  5
35B
330
1F
100
AcDbEntity
  8
0
  6
Continuous
 62
     7
370
    13
100
AcDbCircle
 10
-53.56624251401081
 20
-11.60861444268812
 30
0.0
 40
4.2999999245867
100
AcDbArc
 50
310.6555786132812
 51
90.00001525878905
  0
ARC
  5
35C
330
1F
100
AcDbEntity
  8
0
  6
Continuous
 62
     7
370
    13
100
AcDbCircle
 10
-53.56624251401081
 20
-11.60861444268812
 30
0.0
 40
4.2999999245867
100
AcDbArc
 50
157.933349609375
 51
162.3333435058594
  0
ARC
  5
35D
330
1F
100
AcDbEntity
  8
0
  6
Continuous
 62
     7
370
    13
100
AcDbCircle
 10
-56.70625383829611
 20
-10.6086111514378
 30
0.0
 40
1.000000004940205
100
AcDbArc
 50
162.3333435058594
 51
270.0
  0
ARC
  5
35E
330
1F
100
AcDbEntity
  8
0
  6
Continuous
 62
     7
370
    13
100
AcDbCircle
 10
-58.00625316812511
 20
-9.808613467233954
 30
0.0
 40
0.5000000024701023
100
AcDbArc
 50
337.9333496093749
 51
90.00001525878905
  0
ARC
  5
35F
330
1F
100
AcDbEntity
  8
0
  6
Continuous
 62
     7
370
    13
100
AcDbCircle
 10
-78.56625056332268
 20
-5.808600302232662
 30
0.0
 40
1.500000007410307
100
AcDbArc
 50
180.0
 51
270.0
  0
ARC
  5
360
330
1F
100
AcDbEntity
  8
0
  6
Continuous
 62
     7
370
    13
100
AcDbCircle
 10
-78.56625056332268
 20
118.6913888107374
 30
0.0
 40
1.500000007410307
100
AcDbArc
 50
90.00001525878905
 51
180.0
  0
ARC
  5
361
330
1F
100
AcDbEntity
  8
0
  6
Continuous
 62
     7
370
    13
100
AcDbCircle
 10
-44.86625841930072
 20
123.4913749159605
 30
0.0
 40
3.300000112958855
100
AcDbArc
 50
270.0
 51
0.0
  0
ARC
  5
362
330
1F
100
AcDbEntity
  8
0
  6
Continuous
 62
     7
370
    13
100
AcDbCircle
 10
-40.06624757009558
 20
123.3914092284103
 30
0.0
 40
1.500000007410307
100
AcDbArc
 50
90.00001525878905
 51
180.0
  0
ARC
  5
363
330
1F
100
AcDbEntity
  8
0
  6
Continuous
 62
     7
370
    13
100
AcDbCircle
 10
-20.7662384857249
 20
128.6913722352765
 30
0.0
 40
3.799999825460418
100
AcDbArc
 50
270.0
 51
0.0
  0
ARC
  5
364
330
1F
100
AcDbEntity
  8
0
  6
Continuous
 62
     7
370
    13
100
AcDbCircle
 10
-16.26624841908051
 20
140.4913813792518
 30
0.0
 40
0.7000000034581433
100
AcDbArc
 50
90.00001525878905
 51
180.0
  0
ARC
  5
365
330
1F
100
AcDbEntity
  8
0
  6
Continuous
 62
     7
370
    13
100
AcDbCircle
 10
-11.56625274538965
 20
141.1913886319235
 30
0.0
 40
2.259999914508683
100
AcDbArc
 50
316.04443359375
 51
223.955581665039
  0
ARC
  5
366
330
1F
100
AcDbEntity
  8
0
  6
Continuous
 62
     7
370
    13
100
AcDbCircle
 10
-11.56625274538965
 20
141.1913886319235
 30
0.0
 40
4.000000019760819
100
AcDbArc
 50
316.0333251953125
 51
45.3555564880371
  0
ARC
  5
367
330
1F
100
AcDbEntity
  8
0
  6
Continuous
 62
     7
370
    13
100
AcDbCircle
 10
-11.56625274538965
 20
141.1913886319235
 30
0.0
 40
4.000000019760819
100
AcDbArc
 50
188.611099243164
 51
223.9666748046875
  0
ARC
  5
368
330
1F
100
AcDbEntity
  8
0
  6
Continuous
 62
     7
370
    13
100
AcDbCircle
 10
-16.20624426256836
 20
140.4913813792518
 30
0.0
 40
0.7000000034581433
100
AcDbArc
 50
8.577791213989258
 51
90.00001525878905
  0
ARC
  5
369
330
1F
100
AcDbEntity
  8
0
  6
Continuous
 62
     7
370
    13
100
AcDbCircle
 10
-13.80625120995683
 20
139.0313874613785
 30
0.0
 40
0.860000004248576
100
AcDbArc
 50
329.2999877929688
 51
43.95558166503904
  0
ARC
  5
36A
330
1F
100
AcDbEntity
  8
0
  6
Continuous
 62
     7
370
    13
100
AcDbCircle
 10
-13.82624434746685
 20
139.0113943238684
 30
0.0
 40
0.860000004248576
100
AcDbArc
 50
223.9666900634765
 51
329.8444519042969
  0
ARC
  5
36B
330
1F
100
AcDbEntity
  8
0
  6
Continuous
 62
     7
370
    13
100
AcDbCircle
 10
-9.306236399330373
 20
139.0113943238684
 30
0.0
 40
0.860000004248576
100
AcDbArc
 50
210.1777648925781
 51
316.0333251953125
  0
ARC
  5
36C
330
1F
100
AcDbEntity
  8
0
  6
Continuous
 62
     7
370
    13
100
AcDbCircle
 10
-9.326254280822468
 20
139.0313874613785
 30
0.0
 40
0.860000004248576
100
AcDbArc
 50
136.04443359375
 51
210.1555480957031
  0
ARC
  5
36D
330
1F
100
AcDbEntity
  8
0
  6
Continuous
 62
     7
370
    13
100
AcDbCircle
 10
1.133769258303801
 20
143.3913760774885
 30
0.0
 40
1.500000007410307
100
AcDbArc
 50
0.0
 51
90.00001525878905
  0
ARC
  5
36E
330
1F
100
AcDbEntity
  8
0
  6
Continuous
 62
     7
370
    13
100
AcDbCircle
 10
-8.406248283594323
 20
144.3913793687389
 30
0.0
 40
0.5000000024701023
100
AcDbArc
 50
90.00001525878905
 51
225.3555603027344
  0
ARC
  5
36F
330
1F
100
AcDbEntity
  8
0
  6
Continuous
 62
     7
370
    13
100
AcDbCircle
 10
2.133772549554124
 20
134.9913880213571
 30
0.0
 40
0.5000000024701023
100
AcDbArc
 50
270.0
 51
0.0
  0
ARC
  5
370
330
1F
100
AcDbEntity
  8
0
  6
Continuous
 62
     7
370
    13
100
AcDbCircle
 10
1.933742198525579
 20
132.1913590106706
 30
0.0
 40
2.299999914706291
100
AcDbArc
 50
90.00001525878905
 51
180.0
  0
ARC
  5
371
330
1F
100
AcDbEntity
  8
0
  6
Continuous
 62
     7
370
    13
100
AcDbCircle
 10
1.933742198525579
 20
127.6914184319903
 30
0.0
 40
2.299999914706291
100
AcDbArc
 50
180.0
 51
270.0
  0
ARC
  5
372
330
1F
100
AcDbEntity
  8
0
  6
Continuous
 62
     7
370
    13
100
AcDbCircle
 10
5.433728973919642
 20
124.3913630316965
 30
0.0
 40
1.000000004940205
100
AcDbArc
 50
0.0
 51
90.00001525878905
  0
ARC
  5
373
330
1F
100
AcDbEntity
  8
0
  6
Continuous
 62
     7
370
    13
100
AcDbCircle
 10
9.733738177499617
 20
123.8913861300534
 30
0.0
 40
3.300000112958855
100
AcDbArc
 50
180.0
 51
270.0
  0
ARC
  5
374
330
1F
100
AcDbEntity
  8
0
  6
Continuous
 62
     7
370
    13
100
AcDbCircle
 10
12.73374805125059
 20
120.0913538281166
 30
0.0
 40
0.5000000024701023
100
AcDbArc
 50
0.0
 51
90.00001525878905
  0
ARC
  5
375
330
1F
100
AcDbEntity
  8
0
  6
Continuous
 62
     7
370
    13
100
AcDbCircle
 10
13.73375134250091
 20
119.0914000248304
 30
0.0
 40
0.5000000024701023
100
AcDbArc
 50
180.0
 51
270.0
  0
ARC
  5
376
330
1F
100
AcDbEntity
  8
0
  6
Continuous
 62
     7
370
    13
100
AcDbCircle
 10
13.73375134250091
 20
119.0914000248304
 30
0.0
 40
0.5000000024701023
100
AcDbArc
 50
270.0
 51
0.0
  0
ARC
  5
377
330
1F
100
AcDbEntity
  8
0
  6
Continuous
 62
     7
370
    13
100
AcDbCircle
 10
12.73374805125059
 20
120.8913762563025
 30
0.0
 40
1.500000007410307
100
AcDbArc
 50
0.0
 51
90.00001525878905
  0
ARC
  5
378
330
1F
100
AcDbEntity
  8
0
  6
Continuous
 62
     7
370
    13
100
AcDbCircle
 10
9.733738177499617
 20
123.8913861300534
 30
0.0
 40
1.500000007410307
100
AcDbArc
 50
180.0
 51
270.0
  0
ARC
  5
379
330
1F
100
AcDbEntity
  8
0
  6
Continuous
 62
     7
370
    13
100
AcDbCircle
 10
9.733738177499617
 20
123.8913861300534
 30
0.0
 40
1.500000007410307
100
AcDbArc
 50
90.00001525878905
 51
180.0
  0
ARC
  5
37A
330
1F
100
AcDbEntity
  8
0
  6
Continuous
 62
     7
370
    13
100
AcDbCircle
 10
12.73374805125059
 20
126.8913960038044
 30
0.0
 40
1.500000007410307
100
AcDbArc
 50
270.0
 51
0.0
  0
ARC
  5
37B
330
1F
100
AcDbEntity
  8
0
  6
Continuous
 62
     7
370
    13
100
AcDbCircle
 10
10.47373170519131
 20
126.6913656527759
 30
0.0
 40
1.500000007410307
100
AcDbArc
 50
240.3555603027343
 51
299.6444702148438
  0
ARC
  5
37C
330
1F
100
AcDbEntity
  8
0
  6
Continuous
 62
     7
370
    13
100
AcDbCircle
 10
13.73375134250091
 20
128.6913722352765
 30
0.0
 40
0.5000000024701023
100
AcDbArc
 50
0.0
 51
90.00001525878905
  0
ARC
  5
37D
330
1F
100
AcDbEntity
  8
0
  6
Continuous
 62
     7
370
    13
100
AcDbCircle
 10
13.73375134250091
 20
128.6913722352765
 30
0.0
 40
0.5000000024701023
100
AcDbArc
 50
90.00001525878905
 51
180.0
  0
ARC
  5
37E
330
1F
100
AcDbEntity
  8
0
  6
Continuous
 62
     7
370
    13
100
AcDbCircle
 10
12.73374805125059
 20
127.6914184319903
 30
0.0
 40
0.5000000024701023
100
AcDbArc
 50
270.0
 51
0.0
  0
ARC
  5
37F
330
1F
100
AcDbEntity
  8
0
  6
Continuous
 62
     7
370
    13
100
AcDbCircle
 10
1.933742198525579
 20
127.6914184319903
 30
0.0
 40
0.5000000024701023
100
AcDbArc
 50
180.0
 51
270.0
  0
ARC
  5
380
330
1F
100
AcDbEntity
  8
0
  6
Continuous
 62
     7
370
    13
100
AcDbCircle
 10
1.933742198525579
 20
132.1913590106706
 30
0.0
 40
0.5000000024701023
100
AcDbArc
 50
90.00001525878905
 51
180.0
  0
ARC
  5
381
330
1F
100
AcDbEntity
  8
0
  6
Continuous
 62
     7
370
    13
100
AcDbCircle
 10
3.933748781026225
 20
131.6913821090275
 30
0.0
 40
0.5000000024701023
100
AcDbArc
 50
180.0
 51
270.0
  0
ARC
  5
382
330
1F
100
AcDbEntity
  8
0
  6
Continuous
 62
     7
370
    13
100
AcDbCircle
 10
3.933748781026225
 20
131.6913821090275
 30
0.0
 40
0.5000000024701023
100
AcDbArc
 50
270.0
 51
0.0
  0
ARC
  5
383
330
1F
100
AcDbEntity
  8
0
  6
Continuous
 62
     7
370
    13
100
AcDbCircle
 10
5.93375536352687
 20
143.3913760774885
 30
0.0
 40
1.500000007410307
100
AcDbArc
 50
90.00001525878905
 51
180.0
  0
ARC
  5
384
330
1F
100
AcDbEntity
  8
0
  6
Continuous
 62
     7
370
    13
100
AcDbCircle
 10
13.13375926534354
 20
143.3913760774885
 30
0.0
 40
1.500000007410307
100
AcDbArc
 50
0.0
 51
90.00001525878905
  0
ARC
  5
385
330
1F
100
AcDbEntity
  8
0
  6
Continuous
 62
     7
370
    13
100
AcDbCircle
 10
14.93373549681564
 20
137.1914249548863
 30
0.0
 40
0.5000000024701023
100
AcDbArc
 50
180.0
 51
270.0
  0
ARC
  5
386
330
1F
100
AcDbEntity
  8
0
  6
Continuous
 62
     7
370
    13
100
AcDbCircle
 10
15.93373878806597
 20
137.1914249548863
 30
0.0
 40
0.5000000024701023
100
AcDbArc
 50
270.0
 51
0.0
  0
ARC
  5
387
330
1F
100
AcDbEntity
  8
0
  6
Continuous
 62
     7
370
    13
100
AcDbCircle
 10
16.13376913909451
 20
146.3913859512395
 30
0.0
 40
0.3000000014820614
100
AcDbArc
 50
0.0
 51
90.00001525878905
  0
ARC
  5
388
330
1F
100
AcDbEntity
  8
0
  6
Continuous
 62
     7
370
    13
100
AcDbCircle
 10
-22.76624506822554
 20
145.8914090495964
 30
0.0
 40
0.8000000039521638
100
AcDbArc
 50
90.00001525878905
 51
180.0
  0
ARC
  5
389
330
1F
100
AcDbEntity
  8
0
  6
Continuous
 62
     7
370
    13
100
AcDbCircle
 10
-22.76624506822554
 20
141.0913734564092
 30
0.0
 40
0.8000000039521638
100
AcDbArc
 50
90.00001525878905
 51
180.0
  0
ARC
  5
38A
330
1F
100
AcDbEntity
  8
0
  6
Continuous
 62
     7
370
    13
100
AcDbCircle
 10
-22.76624506822554
 20
140.9914077688591
 30
0.0
 40
0.8000000039521638
100
AcDbArc
 50
180.0
 51
270.0
  0
ARC
  5
38B
330
1F
100
AcDbEntity
  8
0
  6
Continuous
 62
     7
370
    13
100
AcDbCircle
 10
-20.16624640856753
 20
143.0913800389098
 30
0.0
 40
1.400000006916287
100
AcDbArc
 50
270.0
 51
0.0
  0
ARC
  5
38C
330
1F
100
AcDbEntity
  8
0
  6
Continuous
 62
     7
370
    13
100
AcDbCircle
 10
-20.16624640856753
 20
143.0913800389098
 30
0.0
 40
1.400000006916287
100
AcDbArc
 50
0.0
 51
90.00001525878905
  0
ARC
  5
38D
330
1F
100
AcDbEntity
  8
0
  6
Continuous
 62
     7
370
    13
100
AcDbCircle
 10
-22.76624506822554
 20
145.0913866214105
 30
0.0
 40
0.8000000039521638
100
AcDbArc
 50
180.0
 51
270.0
  0
ARC
  5
38E
330
1F
100
AcDbEntity
  8
0
  6
Continuous
 62
     7
370
    13
100
AcDbCircle
 10
-19.76625993845664
 20
139.1913820494228
 30
0.0
 40
1.000000004940205
100
AcDbArc
 50
0.0
 51
90.00001525878905
  0
ARC
  5
38F
330
1F
100
AcDbEntity
  8
0
  6
Continuous
 62
     7
370
    13
100
AcDbCircle
 10
-20.7662384857249
 20
128.6913722352765
 30
0.0
 40
2.000000009880409
100
AcDbArc
 50
270.0
 51
0.0
  0
ARC
  5
390
330
1F
100
AcDbEntity
  8
0
  6
Continuous
 62
     7
370
    13
100
AcDbCircle
 10
-42.06625415259623
 20
126.6913656527759
 30
0.0
 40
0.5000000024701023
100
AcDbArc
 50
0.0
 51
90.00001525878905
  0
ARC
  5
391
330
1F
100
AcDbEntity
  8
0
  6
Continuous
 62
     7
370
    13
100
AcDbCircle
 10
-48.46623562622699
 20
126.0913735756185
 30
0.0
 40
1.100000005434225
100
AcDbArc
 50
90.00001525878905
 51
180.0
  0
ARC
  5
392
330
1F
100
AcDbEntity
  8
0
  6
Continuous
 62
     7
370
    13
100
AcDbCircle
 10
-44.86625841930072
 20
123.4913749159605
 30
0.0
 40
1.500000007410307
100
AcDbArc
 50
0.0
 51
90.00001525878905
  0
ARC
  5
393
330
1F
100
AcDbEntity
  8
0
  6
Continuous
 62
     7
370
    13
100
AcDbCircle
 10
-48.46623562622699
 20
126.0913735756185
 30
0.0
 40
1.100000005434225
100
AcDbArc
 50
180.0
 51
270.0
  0
ARC
  5
394
330
1F
100
AcDbEntity
  8
0
  6
Continuous
 62
     7
370
    13
100
AcDbCircle
 10
-44.86625841930072
 20
123.4913749159605
 30
0.0
 40
1.500000007410307
100
AcDbArc
 50
270.0
 51
0.0
  0
ARC
  5
395
330
1F
100
AcDbEntity
  8
0
  6
Continuous
 62
     7
370
    13
100
AcDbCircle
 10
-58.94625230286329
 20
122.4914211126743
 30
0.0
 40
0.5000000024701023
100
AcDbArc
 50
156.4000091552734
 51
270.0
  0
ARC
  5
396
330
1F
100
AcDbEntity
  8
0
  6
Continuous
 62
     7
370
    13
100
AcDbCircle
 10
-63.06624903690681
 20
124.2913973441464
 30
0.0
 40
2.259999914508683
100
AcDbArc
 50
136.04443359375
 51
43.95558166503904
  0
ARC
  5
397
330
1F
100
AcDbEntity
  8
0
  6
Continuous
 62
     7
370
    13
100
AcDbCircle
 10
-60.82625057233963
 20
126.4513985146914
 30
0.0
 40
0.860000004248576
100
AcDbArc
 50
149.3000030517578
 51
223.955581665039
  0
ARC
  5
398
330
1F
100
AcDbEntity
  8
0
  6
Continuous
 62
     7
370
    13
100
AcDbCircle
 10
-65.30624750147399
 20
126.4513985146914
 30
0.0
 40
0.860000004248576
100
AcDbArc
 50
316.04443359375
 51
30.15555191040039
  0
ARC
  5
399
330
1F
100
AcDbEntity
  8
0
  6
Continuous
 62
     7
370
    13
100
AcDbCircle
 10
-63.06624903690681
 20
124.2913973441464
 30
0.0
 40
4.000000019760819
100
AcDbArc
 50
136.0333251953125
 51
203.6000061035156
  0
ARC
  5
39A
330
1F
100
AcDbEntity
  8
0
  6
Continuous
 62
     7
370
    13
100
AcDbCircle
 10
-67.18624577095034
 20
122.4914211126743
 30
0.0
 40
0.5000000024701023
100
AcDbArc
 50
270.0
 51
23.60000991821287
  0
ARC
  5
39B
330
1F
100
AcDbEntity
  8
0
  6
Continuous
 62
     7
370
    13
100
AcDbCircle
 10
-63.06624903690681
 20
124.2913973441464
 30
0.0
 40
4.000000019760819
100
AcDbArc
 50
336.3999938964844
 51
43.96669006347655
  0
ARC
  5
39C
330
1F
100
AcDbEntity
  8
0
  6
Continuous
 62
     7
370
    13
100
AcDbCircle
 10
-60.8062574348296
 20
126.4713916522014
 30
0.0
 40
0.860000004248576
100
AcDbArc
 50
43.96669006347657
 51
123.6889114379883
  0
ARC
  5
39D
330
1F
100
AcDbEntity
  8
0
  6
Continuous
 62
     7
370
    13
100
AcDbCircle
 10
-60.8062574348296
 20
126.4713916522014
 30
0.0
 40
0.860000004248576
100
AcDbArc
 50
123.6889114379883
 51
149.8444671630859
  0
ARC
  5
39E
330
1F
100
AcDbEntity
  8
0
  6
Continuous
 62
     7
370
    13
100
AcDbCircle
 10
-65.32624063898402
 20
126.4713916522014
 30
0.0
 40
0.860000004248576
100
AcDbArc
 50
30.17777061462403
 51
123.6889114379883
  0
ARC
  5
39F
330
1F
100
AcDbEntity
  8
0
  6
Continuous
 62
     7
370
    13
100
AcDbCircle
 10
-65.32624063898402
 20
126.4713916522014
 30
0.0
 40
0.860000004248576
100
AcDbArc
 50
123.6889114379883
 51
136.0333251953125
  0
ARC
  5
3A0
330
1F
100
AcDbEntity
  8
0
  6
Continuous
 62
     7
370
    13
100
AcDbCircle
 10
-81.76624130013806
 20
126.8913960038044
 30
0.0
 40
0.3000000014820614
100
AcDbArc
 50
90.00001525878905
 51
180.0
  0
ARC
  5
3A1
330
1F
100
AcDbEntity
  8
0
  6
Continuous
 62
     7
370
    13
100
AcDbCircle
 10
9.733738177499617
 20
123.691405266989
 30
0.0
 40
1.300000006422266
100
AcDbArc
 50
8.877803802490234
 51
270.0
  0
ARC
  5
3A2
330
1F
100
AcDbEntity
  8
0
  6
Continuous
 62
     7
370
    13
100
AcDbCircle
 10
13.35373326591798
 20
133.0913966143708
 30
0.0
 40
1.080000005335421
100
AcDbArc
 50
0.0
 51
150.2333221435547
  0
ARC
  5
3A3
330
1F
100
AcDbEntity
  8
0
  6
Continuous
 62
     7
370
    13
100
AcDbCircle
 10
11.41375558391155
 20
132.8714226137963
 30
0.0
 40
0.5000000024701023
100
AcDbArc
 50
150.0111083984375
 51
239.8222503662109
  0
ARC
  5
3A4
330
1F
100
AcDbEntity
  8
0
  6
Continuous
 62
     7
370
    13
100
AcDbCircle
 10
12.933728914315
 20
139.6913589510659
 30
0.0
 40
0.5000000024701023
100
AcDbArc
 50
90.00001525878905
 51
180.0
  0
ARC
  5
3A5
330
1F
100
AcDbEntity
  8
0
  6
Continuous
 62
     7
370
    13
100
AcDbCircle
 10
11.39376244640152
 20
132.8714226137963
 30
0.0
 40
0.5000000024701023
100
AcDbArc
 50
240.1888885498047
 51
330.0888977050781
  0
ARC
  5
3A6
330
1F
100
AcDbEntity
  8
0
  6
Continuous
 62
     7
370
    13
100
AcDbCircle
 10
13.73375134250091
 20
139.4913780880015
 30
0.0
 40
0.7000000034581433
100
AcDbArc
 50
0.0
 51
90.00001525878905
  0
ARC
  5
3A7
330
1F
100
AcDbEntity
  8
0
  6
Continuous
 62
     7
370
    13
100
AcDbCircle
 10
13.73375134250091
 20
139.4913780880015
 30
0.0
 40
0.7000000034581433
100
AcDbArc
 50
270.0
 51
0.0
  0
ARC
  5
3A8
330
1F
100
AcDbEntity
  8
0
  6
Continuous
 62
     7
370
    13
100
AcDbCircle
 10
13.93373220556532
 20
133.191411789885
 30
0.0
 40
2.499999915694332
100
AcDbArc
 50
0.0
 51
90.00001525878905
  0
ARC
  5
3A9
330
1F
100
AcDbEntity
  8
0
  6
Continuous
 62
     7
370
    13
100
AcDbCircle
 10
-80.38624467628688
 20
146.1914050881751
 30
0.0
 40
0.5000000024701023
100
AcDbArc
 50
90.00001525878905
 51
177.9444732666016
  0
ARC
  5
3AA
330
1F
100
AcDbEntity
  8
0
  6
Continuous
 62
     7
370
    13
100
AcDbCircle
 10
-78.15624278047471
 20
143.8914024670958
 30
0.0
 40
1.500000007410307
100
AcDbArc
 50
90.00001525878905
 51
177.933349609375
  0
ARC
  5
3AB
330
1F
100
AcDbEntity
  8
0
  6
Continuous
 62
     7
370
    13
100
AcDbCircle
 10
-60.566240808781
 20
145.3913826599892
 30
0.0
 40
0.5000000024701023
100
AcDbArc
 50
180.0
 51
0.0
  0
ARC
  5
3AC
330
1F
100
AcDbEntity
  8
0
  6
Continuous
 62
     7
370
    13
100
AcDbCircle
 10
-79.17623920923506
 20
129.4913946634624
 30
0.0
 40
1.000000004940205
100
AcDbArc
 50
177.9222412109375
 51
270.0
  0
ARC
  5
3AD
330
1F
100
AcDbEntity
  8
0
  6
Continuous
 62
     7
370
    13
100
AcDbCircle
 10
-79.07624877770286
 20
127.1913920423831
 30
0.0
 40
1.300000006422266
100
AcDbArc
 50
345.2000122070312
 51
90.00001525878905
  0
ARC
  5
3AE
330
1F
100
AcDbEntity
  8
0
  6
Continuous
 62
     7
370
    13
100
AcDbCircle
 10
-78.65624442609987
 20
125.4813849297061
 30
0.0
 40
0.6600000032605351
100
AcDbArc
 50
292.2888793945312
 51
30.81112098693845
  0
ARC
  5
3AF
330
1F
100
AcDbEntity
  8
0
  6
Continuous
 62
     7
370
    13
100
AcDbCircle
 10
-49.16624287889863
 20
143.8914024670958
 30
0.0
 40
1.500000007410307
100
AcDbArc
 50
0.0
 51
90.00001525878905
  0
ARC
  5
3B0
330
1F
100
AcDbEntity
  8
0
  6
Continuous
 62
     7
370
    13
100
AcDbCircle
 10
-48.66624123327347
 20
134.7913576703286
 30
0.0
 40
1.000000004940205
100
AcDbArc
 50
270.0
 51
0.0
  0
ARC
  5
3B1
330
1F
100
AcDbEntity
  8
0
  6
Continuous
 62
     7
370
    13
100
AcDbCircle
 10
-51.56623593151016
 20
131.4914012459631
 30
0.0
 40
2.299999914706291
100
AcDbArc
 50
90.00001525878905
 51
180.0
  0
ARC
  5
3B2
330
1F
100
AcDbEntity
  8
0
  6
Continuous
 62
     7
370
    13
100
AcDbCircle
 10
-51.56623593151016
 20
131.4914012459631
 30
0.0
 40
1.000000004940205
100
AcDbArc
 50
90.00001525878905
 51
180.0
  0
ARC
  5
3B3
330
1F
100
AcDbEntity
  8
0
  6
Continuous
 62
     7
370
    13
100
AcDbCircle
 10
-48.66624123327347
 20
134.7913576703286
 30
0.0
 40
2.299999914706291
100
AcDbArc
 50
270.0
 51
0.0
  0
ARC
  5
3B4
330
1F
100
AcDbEntity
  8
0
  6
Continuous
 62
     7
370
    13
100
AcDbCircle
 10
-51.56623593151016
 20
124.9913551088539
 30
0.0
 40
2.299999914706291
100
AcDbArc
 50
180.0
 51
270.0
  0
ARC
  5
3B5
330
1F
100
AcDbEntity
  8
0
  6
Continuous
 62
     7
370
    13
100
AcDbCircle
 10
-51.56623593151016
 20
124.9913551088539
 30
0.0
 40
1.000000004940205
100
AcDbArc
 50
180.0
 51
270.0
  0
ARC
  5
3B6
330
1F
100
AcDbEntity
  8
0
  6
Continuous
 62
     7
370
    13
100
AcDbCircle
 10
-46.71624223852996
 20
123.8413537983142
 30
0.0
 40
1.149999957353145
100
AcDbArc
 50
270.0
 51
172.5
  0
ARC
  5
3B7
330
1F
100
AcDbEntity
  8
0
  6
Continuous
 62
     7
370
    13
100
AcDbCircle
 10
-45.36626006492588
 20
139.1913820494228
 30
0.0
 40
1.000000004940205
100
AcDbArc
 50
90.00001525878905
 51
180.0
  0
ARC
  5
3B8
330
1F
100
AcDbEntity
  8
0
  6
Continuous
 62
     7
370
    13
100
AcDbCircle
 10
-44.96624885083293
 20
143.0913800389098
 30
0.0
 40
1.400000006916287
100
AcDbArc
 50
90.00001525878905
 51
270.0
  0
ARC
  5
3B9
330
1F
100
AcDbEntity
  8
0
  6
Continuous
 62
     7
370
    13
100
AcDbCircle
 10
-42.36625019117491
 20
140.9914077688591
 30
0.0
 40
0.8000000039521638
100
AcDbArc
 50
270.0
 51
0.0
  0
ARC
  5
3BA
330
1F
100
AcDbEntity
  8
0
  6
Continuous
 62
     7
370
    13
100
AcDbCircle
 10
-42.36625019117491
 20
141.0913734564092
 30
0.0
 40
0.8000000039521638
100
AcDbArc
 50
0.0
 51
90.00001525878905
  0
ARC
  5
3BB
330
1F
100
AcDbEntity
  8
0
  6
Continuous
 62
     7
370
    13
100
AcDbCircle
 10
-42.36625019117491
 20
145.8914090495964
 30
0.0
 40
0.8000000039521638
100
AcDbArc
 50
0.0
 51
90.00001525878905
  0
ARC
  5
3BC
330
1F
100
AcDbEntity
  8
0
  6
Continuous
 62
     7
370
    13
100
AcDbCircle
 10
-42.36625019117491
 20
145.0913866214105
 30
0.0
 40
0.8000000039521638
100
AcDbArc
 50
270.0
 51
0.0
  0
ARC
  5
3BD
330
1F
100
AcDbEntity
  8
0
  6
Continuous
 62
     7
370
    13
100
AcDbCircle
 10
-39.36624031742394
 20
-23.0086123725705
 30
0.0
 40
0.3000000014820614
100
AcDbArc
 50
270.0
 51
0.0
  0
ARC
  5
3BE
330
1F
100
AcDbEntity
  8
0
  6
Continuous
 62
     7
370
    13
100
AcDbCircle
 10
-39.56624592447042
 20
-20.50860414444469
 30
0.0
 40
0.5000000024701023
100
AcDbArc
 50
0.0
 51
90.00001525878905
  0
ARC
  5
3BF
330
1F
100
AcDbEntity
  8
0
  6
Continuous
 62
     7
370
    13
100
AcDbCircle
 10
-39.56624592447042
 20
-20.50860414444469
 30
0.0
 40
0.5000000024701023
100
AcDbArc
 50
90.00001525878905
 51
180.0
  0
ARC
  5
3C0
330
1F
100
AcDbEntity
  8
0
  6
Continuous
 62
     7
370
    13
100
AcDbCircle
 10
-40.56624921572075
 20
-20.9686195150498
 30
0.0
 40
0.5000000024701023
100
AcDbArc
 50
270.0
 51
0.0
  0
ARC
  5
3C1
330
1F
100
AcDbEntity
  8
0
  6
Continuous
 62
     7
370
    13
100
AcDbCircle
 10
-40.56624921572075
 20
-20.9686195150498
 30
0.0
 40
0.5000000024701023
100
AcDbArc
 50
180.0
 51
270.0
  0
ARC
  5
3C2
330
1F
100
AcDbEntity
  8
0
  6
Continuous
 62
     7
370
    13
100
AcDbCircle
 10
-40.56624921572075
 20
-14.4685981219227
 30
0.0
 40
0.5000000024701023
100
AcDbArc
 50
90.00001525878905
 51
180.0
  0
ARC
  5
3C3
330
1F
100
AcDbEntity
  8
0
  6
Continuous
 62
     7
370
    13
100
AcDbCircle
 10
-40.56624921572075
 20
-14.4685981219227
 30
0.0
 40
0.5000000024701023
100
AcDbArc
 50
0.0
 51
90.00001525878905
  0
ARC
  5
3C4
330
1F
100
AcDbEntity
  8
0
  6
Continuous
 62
     7
370
    13
100
AcDbCircle
 10
-39.56624592447042
 20
-14.90859561103571
 30
0.0
 40
0.5000000024701023
100
AcDbArc
 50
180.0
 51
270.0
  0
ARC
  5
3C5
330
1F
100
AcDbEntity
  8
0
  6
Continuous
 62
     7
370
    13
100
AcDbCircle
 10
-39.56624592447042
 20
-14.90859561103571
 30
0.0
 40
0.5000000024701023
100
AcDbArc
 50
270.0
 51
0.0
  0
ARC
  5
3C6
330
1F
100
AcDbEntity
  8
0
  6
Continuous
 62
     7
370
    13
100
AcDbCircle
 10
-39.56624592447042
 20
-12.60861773393844
 30
0.0
 40
0.5000000024701023
100
AcDbArc
 50
0.0
 51
90.00001525878905
  0
ARC
  5
3C7
330
1F
100
AcDbEntity
  8
0
  6
Continuous
 62
     7
370
    13
100
AcDbCircle
 10
-42.56625579822139
 20
-13.56861000618665
 30
0.0
 40
1.500000007410307
100
AcDbArc
 50
101.6110992431641
 51
258.3888854980469
  0
ARC
  5
3C8
330
1F
100
AcDbEntity
  8
0
  6
Continuous
 62
     7
370
    13
100
AcDbCircle
 10
-44.36625677367556
 20
-20.16862183084595
 30
0.0
 40
1.500000007410307
100
AcDbArc
 50
270.0
 51
0.0
  0
ARC
  5
3C9
330
1F
100
AcDbEntity
  8
0
  6
Continuous
 62
     7
370
    13
100
AcDbCircle
 10
-49.2662580544129
 20
-20.16862183084595
 30
0.0
 40
1.500000007410307
100
AcDbArc
 50
180.0
 51
270.0
  0
ARC
  5
3CA
330
1F
100
AcDbEntity
  8
0
  6
Continuous
 62
     7
370
    13
100
AcDbCircle
 10
15.93373878806597
 20
-22.80860676552402
 30
0.0
 40
0.5000000024701023
100
AcDbArc
 50
270.0
 51
0.0
  0
ARC
  5
3CB
330
1F
100
AcDbEntity
  8
0
  6
Continuous
 62
     7
370
    13
100
AcDbCircle
 10
11.93377511102881
 20
-22.80860676552402
 30
0.0
 40
0.5000000024701023
100
AcDbArc
 50
180.0
 51
270.0
  0
ARC
  5
3CC
330
1F
100
AcDbEntity
  8
0
  6
Continuous
 62
     7
370
    13
100
AcDbCircle
 10
11.93377511102881
 20
-15.80860847075382
 30
0.0
 40
0.5000000024701023
100
AcDbArc
 50
90.00001525878905
 51
180.0
  0
ARC
  5
3CD
330
1F
100
AcDbEntity
  8
0
  6
Continuous
 62
     7
370
    13
100
AcDbCircle
 10
13.69376506748085
 20
-20.04861351782165
 30
0.0
 40
1.260000006224658
100
AcDbArc
 50
180.0
 51
270.0
  0
ARC
  5
3CE
330
1F
100
AcDbEntity
  8
0
  6
Continuous
 62
     7
370
    13
100
AcDbCircle
 10
13.67377192997083
 20
-20.04861351782165
 30
0.0
 40
1.260000006224658
100
AcDbArc
 50
270.0
 51
0.0
  0
ARC
  5
3CF
330
1F
100
AcDbEntity
  8
0
  6
Continuous
 62
     7
370
    13
100
AcDbCircle
 10
13.93373220556532
 20
-9.308611821608793
 30
0.0
 40
0.5000000024701023
100
AcDbArc
 50
90.00001525878905
 51
180.0
  0
CIRCLE
  5
3D0
330
1F
100
AcDbEntity
  8
0
  6
Continuous
 62
     7
370
    13
100
AcDbCircle
 10
-2.566247868118808
 20
57.69138599632424
 30
0.0
 40
9.999999662777327
  0
CIRCLE
  5
3D1
330
1F
100
AcDbEntity
  8
0
  6
Continuous
 62
     7
370
    13
100
AcDbCircle
 10
-7.859851671593788
 20
16.19137312934618
 30
0.0
 40
4.500000118887101
  0
CIRCLE
  5
3D2
330
1F
100
AcDbEntity
  8
0
  6
Continuous
 62
     7
370
    13
100
AcDbCircle
 10
-7.859851671593788
 20
99.19139886330231
 30
0.0
 40
4.500000118887101
  0
ARC
  5
3D3
330
1F
100
AcDbEntity
  8
0
  6
Continuous
 62
     7
370
    13
100
AcDbCircle
 10
247.2428585714079
 20
143.0912810629816
 30
0.0
 40
0.3000000014820614
100
AcDbArc
 50
0.0
 51
90.0
  0
ARC
  5
3D4
330
1F
100
AcDbEntity
  8
0
  6
Continuous
 62
     7
370
    13
100
AcDbCircle
 10
280.142853031226
 20
131.2913214069704
 30
0.0
 40
0.6000060439753696
100
AcDbArc
 50
180.0
 51
0.0000152587890461
  0
ARC
  5
3D5
330
1F
100
AcDbEntity
  8
0
  6
Continuous
 62
     7
370
    13
100
AcDbCircle
 10
281.2428714979906
 20
133.1912633259926
 30
0.0
 40
0.5000000024701023
100
AcDbArc
 50
89.99999999999999
 51
180.0
  0
ARC
  5
3D6
330
1F
100
AcDbEntity
  8
0
  6
Continuous
 62
     7
370
    13
100
AcDbCircle
 10
283.5428741190699
 20
133.1912633259926
 30
0.0
 40
0.5000000024701023
100
AcDbArc
 50
0.000015258789032
 51
89.99999999999999
  0
ARC
  5
3D7
330
1F
100
AcDbEntity
  8
0
  6
Continuous
 62
     7
370
    13
100
AcDbCircle
 10
280.5428642453189
 20
135.6912962981005
 30
0.0
 40
1.000000004940205
100
AcDbArc
 50
89.99999999999999
 51
180.0
  0
ARC
  5
3D8
330
1F
100
AcDbEntity
  8
0
  6
Continuous
 62
     7
370
    13
100
AcDbCircle
 10
280.142853031226
 20
-17.90870446071494
 30
0.0
 40
0.6000060439753696
100
AcDbArc
 50
0.000015258789032
 51
180.0
  0
ARC
  5
3D9
330
1F
100
AcDbEntity
  8
0
  6
Continuous
 62
     7
370
    13
100
AcDbCircle
 10
281.2428714979906
 20
-19.80862163575512
 30
0.0
 40
0.5000000024701023
100
AcDbArc
 50
180.0
 51
270.0
  0
ARC
  5
3DA
330
1F
100
AcDbEntity
  8
0
  6
Continuous
 62
     7
370
    13
100
AcDbCircle
 10
283.5428741190699
 20
-19.80862163575512
 30
0.0
 40
0.5000000024701023
100
AcDbArc
 50
270.0
 51
0.0000152587890461
  0
ARC
  5
3DB
330
1F
100
AcDbEntity
  8
0
  6
Continuous
 62
     7
370
    13
100
AcDbCircle
 10
270.1428696066869
 20
-19.90871104321559
 30
0.0
 40
0.6000060439753696
100
AcDbArc
 50
0.000015258789032
 51
180.0
  0
ARC
  5
3DC
330
1F
100
AcDbEntity
  8
0
  6
Continuous
 62
     7
370
    13
100
AcDbCircle
 10
270.5428313328157
 20
-22.30865460786299
 30
0.0
 40
1.000000004940205
100
AcDbArc
 50
180.0
 51
270.0
  0
ARC
  5
3DD
330
1F
100
AcDbEntity
  8
0
  6
Continuous
 62
     7
370
    13
100
AcDbCircle
 10
273.0428148169594
 20
-20.80867441496957
 30
0.0
 40
0.5000000024701023
100
AcDbArc
 50
89.99999999999999
 51
180.0
  0
ARC
  5
3DE
330
1F
100
AcDbEntity
  8
0
  6
Continuous
 62
     7
370
    13
100
AcDbCircle
 10
278.5428576628183
 20
-19.30869422207616
 30
0.0
 40
1.000000004940205
100
AcDbArc
 50
270.0
 51
0.0000152587890461
  0
ARC
  5
3DF
330
1F
100
AcDbEntity
  8
0
  6
Continuous
 62
     7
370
    13
100
AcDbCircle
 10
271.6428497995803
 20
-20.90866484650178
 30
0.0
 40
0.8999938184506675
100
AcDbArc
 50
180.0
 51
0.0000152587890461
  0
ARC
  5
3E0
330
1F
100
AcDbEntity
  8
0
  6
Continuous
 62
     7
370
    13
100
AcDbCircle
 10
187.3308486484748
 20
145.6793531232834
 30
0.0
 40
1.000000004940205
100
AcDbArc
 50
90.0
 51
179.9999847412109
  0
ARC
  5
3E1
330
1F
100
AcDbEntity
  8
0
  6
Continuous
 62
     7
370
    13
100
AcDbCircle
 10
188.0308559011464
 20
144.968705958323
 30
0.0
 40
0.5000000024701023
100
AcDbArc
 50
90.00001525878905
 51
180.0
  0
ARC
  5
3E2
330
1F
100
AcDbEntity
  8
0
  6
Continuous
 62
     7
370
    13
100
AcDbCircle
 10
222.8141148360737
 20
144.9961717784172
 30
0.0
 40
0.5000000024701023
100
AcDbArc
 50
0.0
 51
90.00001525878905
  0
ARC
  5
3E3
330
1F
100
AcDbEntity
  8
0
  6
Continuous
 62
     7
370
    13
100
AcDbCircle
 10
226.7327697880391
 20
144.3968725327577
 30
0.0
 40
0.3000000014820614
100
AcDbArc
 50
0.0
 51
90.00001525878905
  0
ARC
  5
3E4
330
1F
100
AcDbEntity
  8
0
  6
Continuous
 62
     7
370
    13
100
AcDbCircle
 10
224.8538107658096
 20
143.1800624706375
 30
0.0
 40
0.3000000014820614
100
AcDbArc
 50
90.00001525878905
 51
180.0
  0
ARC
  5
3E5
330
1F
100
AcDbEntity
  8
0
  6
Continuous
 62
     7
370
    13
100
AcDbCircle
 10
225.7368245098478
 20
143.1867928337597
 30
0.0
 40
0.3000000014820614
100
AcDbArc
 50
0.0
 51
90.00001525878905
  0
ARC
  5
3E6
330
1F
100
AcDbEntity
  8
0
  6
Continuous
 62
     7
370
    13
100
AcDbCircle
 10
226.542884469658
 20
142.1912929472455
 30
0.0
 40
0.5000000024701023
100
AcDbArc
 50
180.000015258789
 51
0.0
  0
ARC
  5
3E7
330
1F
100
AcDbEntity
  8
0
  6
Continuous
 62
     7
370
    13
100
AcDbCircle
 10
225.0428547888005
 20
138.1912797822442
 30
0.0
 40
0.5000000024701023
100
AcDbArc
 50
180.0
 51
270.0
  0
ARC
  5
3E8
330
1F
100
AcDbEntity
  8
0
  6
Continuous
 62
     7
370
    13
100
AcDbCircle
 10
226.5428349816939
 20
137.1912764909939
 30
0.0
 40
0.5000000024701023
100
AcDbArc
 50
270.0
 51
90.00001525878905
  0
ARC
  5
3E9
330
1F
100
AcDbEntity
  8
0
  6
Continuous
 62
     7
370
    13
100
AcDbCircle
 10
188.542858378074
 20
123.6912568030966
 30
0.0
 40
1.000000004940205
100
AcDbArc
 50
180.0
 51
270.0
  0
ARC
  5
3EA
330
1F
100
AcDbEntity
  8
0
  6
Continuous
 62
     7
370
    13
100
AcDbCircle
 10
188.0428814764309
 20
128.6664303013531
 30
0.0
 40
0.5000000024701023
100
AcDbArc
 50
180.0
 51
278.4268493652344
  0
ARC
  5
3EB
330
1F
100
AcDbEntity
  8
0
  6
Continuous
 62
     7
370
    13
100
AcDbCircle
 10
245.0428711258428
 20
129.1912996489555
 30
0.0
 40
2.499999915694332
100
AcDbArc
 50
270.0
 51
0.0
  0
ARC
  5
3EC
330
1F
100
AcDbEntity
  8
0
  6
Continuous
 62
     7
370
    13
100
AcDbCircle
 10
245.0428711258428
 20
129.1912501609913
 30
0.0
 40
4.999999831388664
100
AcDbArc
 50
270.0
 51
0.0
  0
ARC
  5
3ED
330
1F
100
AcDbEntity
  8
0
  6
Continuous
 62
     7
370
    13
100
AcDbCircle
 10
227.0523630604148
 20
123.1912799014535
 30
0.0
 40
1.000000004940205
100
AcDbArc
 50
90.0
 51
180.0
  0
ARC
  5
3EE
330
1F
100
AcDbEntity
  8
0
  6
Continuous
 62
     7
370
    13
100
AcDbCircle
 10
221.5428680134064
 20
125.0912218204758
 30
0.0
 40
1.200000005928246
100
AcDbArc
 50
180.0000305175781
 51
288.4083862304688
  0
ARC
  5
3EF
330
1F
100
AcDbEntity
  8
0
  6
Continuous
 62
     7
370
    13
100
AcDbCircle
 10
223.4398406545806
 20
125.0902320611931
 30
0.0
 40
0.6000025643528915
100
AcDbArc
 50
288.4083862304688
 51
108.4083709716796
  0
ARC
  5
3F0
330
1F
100
AcDbEntity
  8
0
  6
Continuous
 62
     7
370
    13
100
AcDbCircle
 10
221.8428640519851
 20
125.5073166229122
 30
0.0
 40
0.3000000014820614
100
AcDbArc
 50
180.0
 51
288.4083862304688
  0
ARC
  5
3F1
330
1F
100
AcDbEntity
  8
0
  6
Continuous
 62
     7
370
    13
100
AcDbCircle
 10
222.5428713046567
 20
126.1912402872404
 30
0.0
 40
0.5000000024701023
100
AcDbArc
 50
90.00003051757812
 51
270.0
  0
ARC
  5
3F2
330
1F
100
AcDbEntity
  8
0
  6
Continuous
 62
     7
370
    13
100
AcDbCircle
 10
267.0428445574216
 20
138.7770688136952
 30
0.0
 40
1.000000004940205
100
AcDbArc
 50
135.0
 51
180.0
  0
ARC
  5
3F3
330
1F
100
AcDbEntity
  8
0
  6
Continuous
 62
     7
370
    13
100
AcDbCircle
 10
269.5428280415654
 20
137.691253392637
 30
0.0
 40
1.000000004940205
100
AcDbArc
 50
90.00003051757812
 51
180.000015258789
  0
ARC
  5
3F4
330
1F
100
AcDbEntity
  8
0
  6
Continuous
 62
     7
370
    13
100
AcDbCircle
 10
267.5428214590647
 20
143.1912467505317
 30
0.0
 40
1.000000004940205
100
AcDbArc
 50
0.0
 51
90.0
  0
ARC
  5
3F5
330
1F
100
AcDbEntity
  8
0
  6
Continuous
 62
     7
370
    13
100
AcDbCircle
 10
281.7428978875978
 20
119.1912667364522
 30
0.0
 40
0.5000000024701023
100
AcDbArc
 50
180.000015258789
 51
270.0
  0
ARC
  5
3F6
330
1F
100
AcDbEntity
  8
0
  6
Continuous
 62
     7
370
    13
100
AcDbCircle
 10
280.2428682067402
 20
124.2971379479859
 30
0.0
 40
1.000000004940205
100
AcDbArc
 50
0.0
 51
43.02503967285157
  0
ARC
  5
3F7
330
1F
100
AcDbEntity
  8
0
  6
Continuous
 62
     7
370
    13
100
AcDbCircle
 10
276.6082741689024
 20
128.1912963577051
 30
0.0
 40
1.000000004940205
100
AcDbArc
 50
43.02503967285157
 51
90.0
  0
ARC
  5
3F8
330
1F
100
AcDbEntity
  8
0
  6
Continuous
 62
     7
370
    13
100
AcDbCircle
 10
268.9570390101144
 20
130.1912534522417
 30
0.0
 40
1.000000004940205
100
AcDbArc
 50
225.000015258789
 51
270.0
  0
ARC
  5
3F9
330
1F
100
AcDbEntity
  8
0
  6
Continuous
 62
     7
370
    13
100
AcDbCircle
 10
267.0428445574216
 20
132.1054479049344
 30
0.0
 40
1.000000004940205
100
AcDbArc
 50
180.0
 51
225.000015258789
  0
ARC
  5
3FA
330
1F
100
AcDbEntity
  8
0
  6
Continuous
 62
     7
370
    13
100
AcDbCircle
 10
270.0428544311726
 20
133.6102284303488
 30
0.0
 40
1.500000007410307
100
AcDbArc
 50
180.0
 51
266.8202209472656
  0
ARC
  5
3FB
330
1F
100
AcDbEntity
  8
0
  6
Continuous
 62
     7
370
    13
100
AcDbCircle
 10
279.8428569926473
 20
130.6912798418489
 30
0.0
 40
0.5000000024701023
100
AcDbArc
 50
180.000015258789
 51
270.0
  0
ARC
  5
3FC
330
1F
100
AcDbEntity
  8
0
  6
Continuous
 62
     7
370
    13
100
AcDbCircle
 10
280.5428642453189
 20
129.6912765505986
 30
0.0
 40
0.5000000024701023
100
AcDbArc
 50
0.0
 51
90.00001525878905
  0
ARC
  5
3FD
330
1F
100
AcDbEntity
  8
0
  6
Continuous
 62
     7
370
    13
100
AcDbCircle
 10
282.0428939261765
 20
128.6913227473124
 30
0.0
 40
1.000000004940205
100
AcDbArc
 50
180.000015258789
 51
0.0
  0
ARC
  5
3FE
330
1F
100
AcDbEntity
  8
0
  6
Continuous
 62
     7
370
    13
100
AcDbCircle
 10
285.7489485842234
 20
138.211916263288
 30
0.0
 40
1.500000007410307
100
AcDbArc
 50
180.0
 51
270.0
  0
ARC
  5
3FF
330
1F
100
AcDbEntity
  8
0
  6
Continuous
 62
     7
370
    13
100
AcDbCircle
 10
283.2428780804912
 20
143.8913034911675
 30
0.0
 40
1.000000004940205
100
AcDbArc
 50
0.0
 51
90.0
  0
ARC
  5
400
330
1F
100
AcDbEntity
  8
0
  6
Continuous
 62
     7
370
    13
100
AcDbCircle
 10
276.2389949805365
 20
139.6912599751377
 30
0.0
 40
1.000000004940205
100
AcDbArc
 50
270.0
 51
59.99999999999999
  0
ARC
  5
401
330
1F
100
AcDbEntity
  8
0
  6
Continuous
 62
     7
370
    13
100
AcDbCircle
 10
283.5428246311058
 20
129.1912501609913
 30
0.0
 40
0.5000000024701023
100
AcDbArc
 50
0.0
 51
180.0
  0
ARC
  5
402
330
1F
100
AcDbEntity
  8
0
  6
Continuous
 62
     7
370
    13
100
AcDbCircle
 10
283.0428477294627
 20
119.6912436380953
 30
0.0
 40
1.000000004940205
100
AcDbArc
 50
270.0
 51
0.0
  0
ARC
  5
403
330
1F
100
AcDbEntity
  8
0
  6
Continuous
 62
     7
370
    13
100
AcDbCircle
 10
283.7475068507629
 20
120.3799676349445
 30
0.0
 40
0.3000000014820614
100
AcDbArc
 50
0.0
 51
90.00056457519531
  0
ARC
  5
404
330
1F
100
AcDbEntity
  8
0
  6
Continuous
 62
     7
370
    13
100
AcDbCircle
 10
250.5428149957734
 20
143.6865222955821
 30
0.0
 40
0.5000000024701023
100
AcDbArc
 50
90.0
 51
180.0
  0
ARC
  5
405
330
1F
100
AcDbEntity
  8
0
  6
Continuous
 62
     7
370
    13
100
AcDbCircle
 10
245.3428671644215
 20
144.3912803928106
 30
0.0
 40
0.3000000014820614
100
AcDbArc
 50
90.0
 51
180.0
  0
ARC
  5
406
330
1F
100
AcDbEntity
  8
0
  6
Continuous
 62
     7
370
    13
100
AcDbCircle
 10
245.5428480274859
 20
142.1912929472455
 30
0.0
 40
0.5000000024701023
100
AcDbArc
 50
180.0
 51
0.0
  0
ARC
  5
407
330
1F
100
AcDbEntity
  8
0
  6
Continuous
 62
     7
370
    13
100
AcDbCircle
 10
246.3428704556718
 20
143.0912810629816
 30
0.0
 40
0.3000000014820614
100
AcDbArc
 50
90.0
 51
180.0
  0
ARC
  5
408
330
1F
100
AcDbEntity
  8
0
  6
Continuous
 62
     7
370
    13
100
AcDbCircle
 10
245.5428480274859
 20
137.1912764909939
 30
0.0
 40
0.5000000024701023
100
AcDbArc
 50
0.0
 51
180.0
  0
ARC
  5
409
330
1F
100
AcDbEntity
  8
0
  6
Continuous
 62
     7
370
    13
100
AcDbCircle
 10
245.5428480274859
 20
135.491265947072
 30
0.0
 40
0.5000000024701023
100
AcDbArc
 50
180.0
 51
270.0
  0
ARC
  5
40A
330
1F
100
AcDbEntity
  8
0
  6
Continuous
 62
     7
370
    13
100
AcDbCircle
 10
247.0381268637866
 20
134.4913121437858
 30
0.0
 40
0.5000000024701023
100
AcDbArc
 50
0.0
 51
90.0
  0
ARC
  5
40B
330
1F
100
AcDbEntity
  8
0
  6
Continuous
 62
     7
370
    13
100
AcDbCircle
 10
247.2428585714079
 20
136.4912692383223
 30
0.0
 40
0.3000000014820614
100
AcDbArc
 50
270.0
 51
0.0
  0
ARC
  5
40C
330
1F
100
AcDbEntity
  8
0
  6
Continuous
 62
     7
370
    13
100
AcDbCircle
 10
246.3428704556718
 20
136.4912692383223
 30
0.0
 40
0.3000000014820614
100
AcDbArc
 50
180.0
 51
270.0
  0
ARC
  5
40D
330
1F
100
AcDbEntity
  8
0
  6
Continuous
 62
     7
370
    13
100
AcDbCircle
 10
190.5428649605747
 20
118.1912139572378
 30
0.0
 40
2.000000009880409
100
AcDbArc
 50
90.0
 51
180.0
  0
ARC
  5
40E
330
1F
100
AcDbEntity
  8
0
  6
Continuous
 62
     7
370
    13
100
AcDbCircle
 10
193.3428939712612
 20
-19.00862395155127
 30
0.0
 40
2.000000009880409
100
AcDbArc
 50
270.0
 51
0.0
  0
ARC
  5
40F
330
1F
100
AcDbEntity
  8
0
  6
Continuous
 62
     7
370
    13
100
AcDbCircle
 10
190.3428346095461
 20
-19.00862395155127
 30
0.0
 40
2.000000009880409
100
AcDbArc
 50
180.000015258789
 51
270.0
  0
ARC
  5
410
330
1F
100
AcDbEntity
  8
0
  6
Continuous
 62
     7
370
    13
100
AcDbCircle
 10
231.0428250483383
 20
-19.80862163575512
 30
0.0
 40
0.5000000024701023
100
AcDbArc
 50
0.0
 51
90.0
  0
ARC
  5
411
330
1F
100
AcDbEntity
  8
0
  6
Continuous
 62
     7
370
    13
100
AcDbCircle
 10
231.0508420985279
 20
-22.80957178082463
 30
0.0
 40
0.5000000024701023
100
AcDbArc
 50
270.0
 51
0.0
  0
ARC
  5
412
330
1F
100
AcDbEntity
  8
0
  6
Continuous
 62
     7
370
    13
100
AcDbCircle
 10
226.5428349816939
 20
-20.00857775483746
 30
0.0
 40
1.000000004940205
100
AcDbArc
 50
270.0
 51
0.0
  0
ARC
  5
413
330
1F
100
AcDbEntity
  8
0
  6
Continuous
 62
     7
370
    13
100
AcDbCircle
 10
223.7428554589715
 20
-20.00857775483746
 30
0.0
 40
1.000000004940205
100
AcDbArc
 50
180.0
 51
270.0
  0
ARC
  5
414
330
1F
100
AcDbEntity
  8
0
  6
Continuous
 62
     7
370
    13
100
AcDbCircle
 10
220.2377714232716
 20
-19.70858171625878
 30
0.0
 40
0.3000000014820614
100
AcDbArc
 50
270.0
 51
0.0
  0
ARC
  5
415
330
1F
100
AcDbEntity
  8
0
  6
Continuous
 62
     7
370
    13
100
AcDbCircle
 10
219.3428310798772
 20
-19.70863120422291
 30
0.0
 40
0.3000000014820614
100
AcDbArc
 50
180.0
 51
270.0
  0
ARC
  5
416
330
1F
100
AcDbEntity
  8
0
  6
Continuous
 62
     7
370
    13
100
AcDbCircle
 10
218.3428277886269
 20
-21.00863053405192
 30
0.0
 40
0.3000000014820614
100
AcDbArc
 50
180.0
 51
270.0
  0
ARC
  5
417
330
1F
100
AcDbEntity
  8
0
  6
Continuous
 62
     7
370
    13
100
AcDbCircle
 10
218.5385526867758
 20
-18.78877367088717
 30
0.0
 40
0.5000000024701023
100
AcDbArc
 50
0.0
 51
180.0
  0
ARC
  5
418
330
1F
100
AcDbEntity
  8
0
  6
Continuous
 62
     7
370
    13
100
AcDbCircle
 10
218.5428581396554
 20
-13.80857714427111
 30
0.0
 40
0.5000000024701023
100
AcDbArc
 50
180.0
 51
0.0
  0
ARC
  5
419
330
1F
100
AcDbEntity
  8
0
  6
Continuous
 62
     7
370
    13
100
AcDbCircle
 10
217.0428284587979
 20
-11.31812009322311
 30
0.0
 40
1.000000004940205
100
AcDbArc
 50
0.0
 51
90.0
  0
ARC
  5
41A
330
1F
100
AcDbEntity
  8
0
  6
Continuous
 62
     7
370
    13
100
AcDbCircle
 10
219.3428310798772
 20
-13.10864412354567
 30
0.0
 40
0.3000000014820614
100
AcDbArc
 50
90.0
 51
180.0
  0
ARC
  5
41B
330
1F
100
AcDbEntity
  8
0
  6
Continuous
 62
     7
370
    13
100
AcDbCircle
 10
220.2428686835774
 20
-13.10859463558154
 30
0.0
 40
0.3000000014820614
100
AcDbArc
 50
0.0
 51
90.0
  0
ARC
  5
41C
330
1F
100
AcDbEntity
  8
0
  6
Continuous
 62
     7
370
    13
100
AcDbCircle
 10
221.7428488764708
 20
-11.3995277942231
 30
0.0
 40
1.000000004940205
100
AcDbArc
 50
0.0
 51
60.0
  0
ARC
  5
41D
330
1F
100
AcDbEntity
  8
0
  6
Continuous
 62
     7
370
    13
100
AcDbCircle
 10
217.7749039122282
 20
-9.108606214562315
 30
0.0
 40
1.000000004940205
100
AcDbArc
 50
60.0
 51
90.0
  0
ARC
  5
41E
330
1F
100
AcDbEntity
  8
0
  6
Continuous
 62
     7
370
    13
100
AcDbCircle
 10
189.2428656307457
 20
127.3230795149429
 30
0.0
 40
1.000000004940205
100
AcDbArc
 50
0.0
 51
98.42684936523438
  0
ARC
  5
41F
330
1F
100
AcDbEntity
  8
0
  6
Continuous
 62
     7
370
    13
100
AcDbCircle
 10
189.7428920203529
 20
124.1912831927038
 30
0.0
 40
0.499976176721745
100
AcDbArc
 50
209.2091674804688
 51
0.0
  0
ARC
  5
420
330
1F
100
AcDbEntity
  8
0
  6
Continuous
 62
     7
370
    13
100
AcDbCircle
 10
188.8428544166527
 20
125.3912178590544
 30
0.0
 40
0.2999724061426861
100
AcDbArc
 50
124.3375625610351
 51
209.211929321289
  0
ARC
  5
421
330
1F
100
AcDbEntity
  8
0
  6
Continuous
 62
     7
370
    13
100
AcDbCircle
 10
188.542858378074
 20
126.5117243429704
 30
0.0
 40
0.5000000024701023
100
AcDbArc
 50
0.0
 51
98.42686462402344
  0
ARC
  5
422
330
1F
100
AcDbEntity
  8
0
  6
Continuous
 62
     7
370
    13
100
AcDbCircle
 10
188.542858378074
 20
126.1912402872404
 30
0.0
 40
0.5000000024701023
100
AcDbArc
 50
270.0
 51
90.0
  0
ARC
  5
423
330
1F
100
AcDbEntity
  8
0
  6
Continuous
 62
     7
370
    13
100
AcDbCircle
 10
228.5428415641945
 20
-13.30864973059215
 30
0.0
 40
1.000000004940205
100
AcDbArc
 50
90.0
 51
180.0
  0
ARC
  5
424
330
1F
100
AcDbEntity
  8
0
  6
Continuous
 62
     7
370
    13
100
AcDbCircle
 10
231.0428745363024
 20
-12.80862334098492
 30
0.0
 40
0.5000000024701023
100
AcDbArc
 50
0.0
 51
90.0
  0
ARC
  5
425
330
1F
100
AcDbEntity
  8
0
  6
Continuous
 62
     7
370
    13
100
AcDbCircle
 10
231.0428250483383
 20
-14.80865466746764
 30
0.0
 40
0.5000000024701023
100
AcDbArc
 50
270.0
 51
0.0
  0
ARC
  5
426
330
1F
100
AcDbEntity
  8
0
  6
Continuous
 62
     7
370
    13
100
AcDbCircle
 10
199.7428259569278
 20
-21.00860579006985
 30
0.0
 40
0.3000000014820614
100
AcDbArc
 50
270.0
 51
0.0
  0
ARC
  5
427
330
1F
100
AcDbEntity
  8
0
  6
Continuous
 62
     7
370
    13
100
AcDbCircle
 10
197.8428840379056
 20
-19.70863120422291
 30
0.0
 40
0.3000000014820614
100
AcDbArc
 50
180.0
 51
270.0
  0
ARC
  5
428
330
1F
100
AcDbEntity
  8
0
  6
Continuous
 62
     7
370
    13
100
AcDbCircle
 10
198.7377254053717
 20
-19.70858171625878
 30
0.0
 40
0.3000000014820614
100
AcDbArc
 50
270.0
 51
0.0
  0
ARC
  5
429
330
1F
100
AcDbEntity
  8
0
  6
Continuous
 62
     7
370
    13
100
AcDbCircle
 10
199.5428450938634
 20
-18.80866783246893
 30
0.0
 40
0.5000000024701023
100
AcDbArc
 50
0.0
 51
180.0
  0
ARC
  5
42A
330
1F
100
AcDbEntity
  8
0
  6
Continuous
 62
     7
370
    13
100
AcDbCircle
 10
198.5428418026131
 20
-15.30868105707486
 30
0.0
 40
1.000000004940205
100
AcDbArc
 50
90.0
 51
180.0
  0
ARC
  5
42B
330
1F
100
AcDbEntity
  8
0
  6
Continuous
 62
     7
370
    13
100
AcDbCircle
 10
199.0428187042562
 20
-10.30861511285912
 30
0.0
 40
4.500000118887101
100
AcDbArc
 50
297.2660522460938
 51
349.5243530273438
  0
ARC
  5
42C
330
1F
100
AcDbEntity
  8
0
  6
Continuous
 62
     7
370
    13
100
AcDbCircle
 10
204.4511603525752
 20
-11.30861840410944
 30
0.0
 40
1.000000004940205
100
AcDbArc
 50
90.0
 51
169.5243530273437
  0
ARC
  5
42D
330
1F
100
AcDbEntity
  8
0
  6
Continuous
 62
     7
370
    13
100
AcDbCircle
 10
200.6261366287508
 20
-8.650916778271494
 30
0.0
 40
0.5422878544470962
100
AcDbArc
 50
90.0
 51
226.3159790039062
  0
ARC
  5
42E
330
1F
100
AcDbEntity
  8
0
  6
Continuous
 62
     7
370
    13
100
AcDbCircle
 10
196.8501554773829
 20
-9.608607860187476
 30
0.0
 40
1.500000007410307
100
AcDbArc
 50
90.0
 51
180.0
  0
ARC
  5
42F
330
1F
100
AcDbEntity
  8
0
  6
Continuous
 62
     7
370
    13
100
AcDbCircle
 10
197.4595007797616
 20
-8.650991010217695
 30
0.0
 40
0.5423815142854664
100
AcDbArc
 50
313.6866455078124
 51
90.0
  0
ARC
  5
430
330
1F
100
AcDbEntity
  8
0
  6
Continuous
 62
     7
370
    13
100
AcDbCircle
 10
197.5877240948321
 20
-8.857529028529825
 30
0.0
 40
0.3000134125270293
100
AcDbArc
 50
265.2796020507812
 51
322.4223327636718
  0
ARC
  5
431
330
1F
100
AcDbEntity
  8
0
  6
Continuous
 62
     7
370
    13
100
AcDbCircle
 10
197.5220040784625
 20
-9.654829618688382
 30
0.0
 40
0.4999900952116576
100
AcDbArc
 50
85.29625701904297
 51
244.7102966308594
  0
ARC
  5
432
330
1F
100
AcDbEntity
  8
0
  6
Continuous
 62
     7
370
    13
100
AcDbCircle
 10
197.1765286008449
 20
-10.37636413575819
 30
0.0
 40
0.3000211691854702
100
AcDbArc
 50
7.566362380981446
 51
64.69800567626953
  0
ARC
  5
433
330
1F
100
AcDbEntity
  8
0
  6
Continuous
 62
     7
370
    13
100
AcDbCircle
 10
200.4466437828378
 20
-8.813855900181807
 30
0.0
 40
0.300000726403411
100
AcDbArc
 50
217.5670013427734
 51
274.7059020996094
  0
ARC
  5
434
330
1F
100
AcDbEntity
  8
0
  6
Continuous
 62
     7
370
    13
100
AcDbCircle
 10
200.1162126463169
 20
-9.13461213971459
 30
0.0
 40
1.749906590447438
100
AcDbArc
 50
43.68663024902342
 51
52.41990661621096
  0
ARC
  5
435
330
1F
100
AcDbEntity
  8
0
  6
Continuous
 62
     7
370
    13
100
AcDbCircle
 10
200.5123143112432
 20
-9.61118123432243
 30
0.0
 40
0.5000249880926191
100
AcDbArc
 50
295.2897033691407
 51
94.71416473388672
  0
ARC
  5
436
330
1F
100
AcDbEntity
  8
0
  6
Continuous
 62
     7
370
    13
100
AcDbCircle
 10
200.8540287035867
 20
-10.33447257411899
 30
0.0
 40
0.2999255037313659
100
AcDbArc
 50
115.283576965332
 51
172.4336853027344
  0
ARC
  5
437
330
1F
100
AcDbEntity
  8
0
  6
Continuous
 62
     7
370
    13
100
AcDbCircle
 10
200.8340355660766
 20
-10.40939735181746
 30
0.0
 40
0.2999731310640357
100
AcDbArc
 50
157.5794219970703
 51
214.7062072753906
  0
ARC
  5
438
330
1F
100
AcDbEntity
  8
0
  6
Continuous
 62
     7
370
    13
100
AcDbCircle
 10
199.3786935168318
 20
-11.8457360228349
 30
0.0
 40
1.750030503670132
100
AcDbArc
 50
37.58012771606446
 51
46.31595993041992
  0
ARC
  5
439
330
1F
100
AcDbEntity
  8
0
  6
Continuous
 62
     7
370
    13
100
AcDbCircle
 10
200.3544971936208
 20
-11.06323233395233
 30
0.0
 40
0.5001190828837991
100
AcDbArc
 50
235.286361694336
 51
34.71050262451171
  0
ARC
  5
43A
330
1F
100
AcDbEntity
  8
0
  6
Continuous
 62
     7
370
    13
100
AcDbCircle
 10
200.3162924853095
 20
-11.64511181623675
 30
0.0
 40
0.2999665826078441
100
AcDbArc
 50
145.2938003540039
 51
202.4139251708984
  0
ARC
  5
43B
330
1F
100
AcDbEntity
  8
0
  6
Continuous
 62
     7
370
    13
100
AcDbCircle
 10
197.8542167816922
 20
-10.90677613534353
 30
0.0
 40
0.4999703773509481
100
AcDbArc
 50
145.2894897460938
 51
304.7035827636719
  0
ARC
  5
43C
330
1F
100
AcDbEntity
  8
0
  6
Continuous
 62
     7
370
    13
100
AcDbCircle
 10
197.1966207142832
 20
-10.45128891345666
 30
0.0
 40
0.2999791479112375
100
AcDbArc
 50
325.2954406738282
 51
22.41943168640135
  0
ARC
  5
43D
330
1F
100
AcDbEntity
  8
0
  6
Continuous
 62
     7
370
    13
100
AcDbCircle
 10
200.0410404287977
 20
-11.09356845596631
 30
0.0
 40
1.749994160946471
100
AcDbArc
 50
187.5817718505859
 51
202.4221649169922
  0
ARC
  5
43E
330
1F
100
AcDbEntity
  8
0
  6
Continuous
 62
     7
370
    13
100
AcDbCircle
 10
199.3714682740683
 20
-10.14181592974637
 30
0.0
 40
1.749971350088003
100
AcDbArc
 50
247.5807952880859
 51
292.4220275878906
  0
ARC
  5
43F
330
1F
100
AcDbEntity
  8
0
  6
Continuous
 62
     7
370
    13
100
AcDbCircle
 10
198.9349844304088
 20
-10.02472740660596
 30
0.0
 40
1.75009062381406
100
AcDbArc
 50
247.5791931152343
 51
262.4182434082031
  0
ARC
  5
440
330
1F
100
AcDbEntity
  8
0
  6
Continuous
 62
     7
370
    13
100
AcDbCircle
 10
198.4141730958654
 20
-11.45589458537142
 30
0.0
 40
0.3000518575226039
100
AcDbArc
 50
157.5887451171875
 51
214.723030090332
  0
ARC
  5
441
330
1F
100
AcDbEntity
  8
0
  6
Continuous
 62
     7
370
    13
100
AcDbCircle
 10
272.3906624256051
 20
144.4950071656349
 30
0.0
 40
0.1999999889060184
100
AcDbArc
 50
252.2996292114258
 51
298.030746459961
  0
ARC
  5
442
330
1F
100
AcDbEntity
  8
0
  6
Continuous
 62
     7
370
    13
100
AcDbCircle
 10
273.3305873283971
 20
142.7296230210923
 30
0.0
 40
1.800000008892368
100
AcDbArc
 50
96.26022338867186
 51
118.03076171875
  0
ARC
  5
443
330
1F
100
AcDbEntity
  8
0
  6
Continuous
 62
     7
370
    13
100
AcDbCircle
 10
273.1124443824956
 20
144.7177030042367
 30
0.0
 40
0.1999999889060184
100
AcDbArc
 50
276.2602005004883
 51
313.1301116943359
  0
ARC
  5
444
330
1F
100
AcDbEntity
  8
0
  6
Continuous
 62
     7
370
    13
100
AcDbCircle
 10
273.5910919715971
 20
144.2068882384483
 30
0.0
 40
0.5000000024701023
100
AcDbArc
 50
26.86994934082033
 51
133.1301269531249
  0
ARC
  5
445
330
1F
100
AcDbEntity
  8
0
  6
Continuous
 62
     7
370
    13
100
AcDbCircle
 10
274.2154816150723
 20
144.5232153051911
 30
0.0
 40
0.1999999889060184
100
AcDbArc
 50
206.869930267334
 51
243.7398300170898
  0
ARC
  5
446
330
1F
100
AcDbEntity
  8
0
  6
Continuous
 62
     7
370
    13
100
AcDbCircle
 10
273.3305873283971
 20
142.7296230210923
 30
0.0
 40
1.800000008892368
100
AcDbArc
 50
44.79287719726559
 51
63.73982238769526
  0
ARC
  5
447
330
1F
100
AcDbEntity
  8
0
  6
Continuous
 62
     7
370
    13
100
AcDbCircle
 10
274.8917841329239
 20
144.279685033689
 30
0.0
 40
0.3999999778120369
100
AcDbArc
 50
224.792854309082
 51
270.0
  0
ARC
  5
448
330
1F
100
AcDbEntity
  8
0
  6
Continuous
 62
     7
370
    13
100
AcDbCircle
 10
274.8917841329239
 20
141.1796599844238
 30
0.0
 40
0.3999999778120369
100
AcDbArc
 50
90.00003051757808
 51
135.2071838378907
  0
ARC
  5
449
330
1F
100
AcDbEntity
  8
0
  6
Continuous
 62
     7
370
    13
100
AcDbCircle
 10
273.3305873283971
 20
142.7296230210923
 30
0.0
 40
1.800000008892368
100
AcDbArc
 50
296.2602005004883
 51
315.2071533203125
  0
ARC
  5
44A
330
1F
100
AcDbEntity
  8
0
  6
Continuous
 62
     7
370
    13
100
AcDbCircle
 10
274.2154816150723
 20
140.9360307369934
 30
0.0
 40
0.1999999889060184
100
AcDbArc
 50
116.2602233886719
 51
153.1301269531249
  0
ARC
  5
44B
330
1F
100
AcDbEntity
  8
0
  6
Continuous
 62
     7
370
    13
100
AcDbCircle
 10
273.5910919715971
 20
141.2524072917004
 30
0.0
 40
0.5000000024701023
100
AcDbArc
 50
226.869930267334
 51
333.130111694336
  0
ARC
  5
44C
330
1F
100
AcDbEntity
  8
0
  6
Continuous
 62
     7
370
    13
100
AcDbCircle
 10
273.1124443824956
 20
140.7415430379478
 30
0.0
 40
0.1999999889060184
100
AcDbArc
 50
46.86993408203125
 51
83.73983764648433
  0
ARC
  5
44D
330
1F
100
AcDbEntity
  8
0
  6
Continuous
 62
     7
370
    13
100
AcDbCircle
 10
273.3305873283971
 20
142.7296230210923
 30
0.0
 40
1.800000008892368
100
AcDbArc
 50
241.9692840576172
 51
263.7398300170898
  0
ARC
  5
44E
330
1F
100
AcDbEntity
  8
0
  6
Continuous
 62
     7
370
    13
100
AcDbCircle
 10
272.3906624256051
 20
140.9642883645138
 30
0.0
 40
0.1999999889060184
100
AcDbArc
 50
61.96929931640626
 51
107.7004089355469
  0
ARC
  5
44F
330
1F
100
AcDbEntity
  8
0
  6
Continuous
 62
     7
370
    13
100
AcDbCircle
 10
272.1018011789565
 20
141.8692252766632
 30
0.0
 40
0.7499999553770635
100
AcDbArc
 50
142.2996215820312
 51
287.7004165649414
  0
ARC
  5
450
330
1F
100
AcDbEntity
  8
0
  6
Continuous
 62
     7
370
    13
100
AcDbCircle
 10
271.3501779796934
 20
142.4501644876291
 30
0.0
 40
0.1999999889060184
100
AcDbArc
 50
322.2996215820313
 51
8.03073120117184
  0
ARC
  5
451
330
1F
100
AcDbEntity
  8
0
  6
Continuous
 62
     7
370
    13
100
AcDbCircle
 10
273.3305873283971
 20
142.7296230210923
 30
0.0
 40
1.800000008892368
100
AcDbArc
 50
171.9692993164062
 51
188.0307474136353
  0
ARC
  5
452
330
1F
100
AcDbEntity
  8
0
  6
Continuous
 62
     7
370
    13
100
AcDbCircle
 10
271.3501779796934
 20
143.0090815545555
 30
0.0
 40
0.1999999889060184
100
AcDbArc
 50
351.9692840576172
 51
37.70039367675781
  0
ARC
  5
453
330
1F
100
AcDbEntity
  8
0
  6
Continuous
 62
     7
370
    13
100
AcDbCircle
 10
272.1018011789565
 20
143.5900207655213
 30
0.0
 40
0.7499999553770635
100
AcDbArc
 50
72.29962158203125
 51
217.7004013061524
  0
ARC
  5
454
330
1F
100
AcDbEntity
  8
0
  6
Continuous
 62
     7
370
    13
100
AcDbCircle
 10
275.0305483843549
 20
144.279685033689
 30
0.0
 40
0.3999999778120369
100
AcDbArc
 50
270.0
 51
303.9376678466797
  0
ARC
  5
455
330
1F
100
AcDbEntity
  8
0
  6
Continuous
 62
     7
370
    13
100
AcDbCircle
 10
275.0305483843549
 20
141.1796599844238
 30
0.0
 40
0.3999999778120369
100
AcDbArc
 50
22.00741577148438
 51
90.00003051757808
  0
ARC
  5
456
330
1F
100
AcDbEntity
  8
0
  6
Continuous
 62
     7
370
    13
100
AcDbCircle
 10
283.7556228768808
 20
126.9896296126099
 30
0.0
 40
0.3000000014820614
100
AcDbArc
 50
269.9994201660156
 51
0.0
  0
ARC
  5
457
330
1F
100
AcDbEntity
  8
0
  6
Continuous
 62
     7
370
    13
100
AcDbCircle
 10
199.0428187042562
 20
122.6912535118463
 30
0.0
 40
4.500000118887101
100
AcDbArc
 50
21.29474639892575
 51
179.9286804199219
  0
ARC
  5
458
330
1F
100
AcDbEntity
  8
0
  6
Continuous
 62
     7
370
    13
100
AcDbCircle
 10
204.1663571189856
 20
124.6912106063828
 30
0.0
 40
1.000000004940205
100
AcDbArc
 50
201.3236846923828
 51
270.0
  0
ARC
  5
459
330
1F
100
AcDbEntity
  8
0
  6
Continuous
 62
     7
370
    13
100
AcDbCircle
 10
200.9611701459362
 20
123.254377055724
 30
0.0
 40
0.1999999889060184
100
AcDbArc
 50
162.2996292114258
 51
208.0307464599609
  0
ARC
  5
45A
330
1F
100
AcDbEntity
  8
0
  6
Continuous
 62
     7
370
    13
100
AcDbCircle
 10
199.1957860013936
 20
122.3144521529321
 30
0.0
 40
1.800000008892368
100
AcDbArc
 50
6.260223388671868
 51
28.03076171875
  0
ARC
  5
45B
330
1F
100
AcDbEntity
  8
0
  6
Continuous
 62
     7
370
    13
100
AcDbCircle
 10
201.183865984538
 20
122.5325950988336
 30
0.0
 40
0.1999999889060184
100
AcDbArc
 50
186.2602005004883
 51
223.1301116943359
  0
ARC
  5
45C
330
1F
100
AcDbEntity
  8
0
  6
Continuous
 62
     7
370
    13
100
AcDbCircle
 10
200.6730512187496
 20
122.0539475097321
 30
0.0
 40
0.5000000024701023
100
AcDbArc
 50
296.8699493408203
 51
43.13012695312501
  0
ARC
  5
45D
330
1F
100
AcDbEntity
  8
0
  6
Continuous
 62
     7
370
    13
100
AcDbCircle
 10
200.9893782854924
 20
121.4295578662568
 30
0.0
 40
0.1999999889060184
100
AcDbArc
 50
116.869930267334
 51
153.7398300170898
  0
ARC
  5
45E
330
1F
100
AcDbEntity
  8
0
  6
Continuous
 62
     7
370
    13
100
AcDbCircle
 10
199.1957860013936
 20
122.3144521529321
 30
0.0
 40
1.800000008892368
100
AcDbArc
 50
314.7928771972657
 51
333.7398223876953
  0
ARC
  5
45F
330
1F
100
AcDbEntity
  8
0
  6
Continuous
 62
     7
370
    13
100
AcDbCircle
 10
200.7458480139903
 20
120.7532553484052
 30
0.0
 40
0.3999999778120369
100
AcDbArc
 50
134.792854309082
 51
180.0
  0
ARC
  5
460
330
1F
100
AcDbEntity
  8
0
  6
Continuous
 62
     7
370
    13
100
AcDbCircle
 10
200.7458480139903
 20
120.6144910969742
 30
0.0
 40
0.3999999778120369
100
AcDbArc
 50
180.0
 51
270.0000152587891
  0
ARC
  5
461
330
1F
100
AcDbEntity
  8
0
  6
Continuous
 62
     7
370
    13
100
AcDbCircle
 10
201.9616188288637
 20
120.5144264334958
 30
0.0
 40
0.3000000014820614
100
AcDbArc
 50
270.0000152587891
 51
326.9443054199219
  0
ARC
  5
462
330
1F
100
AcDbEntity
  8
0
  6
Continuous
 62
     7
370
    13
100
AcDbCircle
 10
197.6458229647251
 20
120.6144910969742
 30
0.0
 40
0.3999999778120369
100
AcDbArc
 50
270.0
 51
0.0000305175780922
  0
ARC
  5
463
330
1F
100
AcDbEntity
  8
0
  6
Continuous
 62
     7
370
    13
100
AcDbCircle
 10
197.6458229647251
 20
120.7532553484052
 30
0.0
 40
0.3999999778120369
100
AcDbArc
 50
0.0000305175780781
 51
45.20718383789058
  0
ARC
  5
464
330
1F
100
AcDbEntity
  8
0
  6
Continuous
 62
     7
370
    13
100
AcDbCircle
 10
199.1957860013936
 20
122.3144521529321
 30
0.0
 40
1.800000008892368
100
AcDbArc
 50
206.2602005004883
 51
225.2071533203125
  0
ARC
  5
465
330
1F
100
AcDbEntity
  8
0
  6
Continuous
 62
     7
370
    13
100
AcDbCircle
 10
197.4021937172947
 20
121.4295578662568
 30
0.0
 40
0.1999999889060184
100
AcDbArc
 50
26.26022338867185
 51
63.13012695312498
  0
ARC
  5
466
330
1F
100
AcDbEntity
  8
0
  6
Continuous
 62
     7
370
    13
100
AcDbCircle
 10
197.7185702720017
 20
122.0539475097321
 30
0.0
 40
0.5000000024701023
100
AcDbArc
 50
136.869930267334
 51
243.1301116943359
  0
ARC
  5
467
330
1F
100
AcDbEntity
  8
0
  6
Continuous
 62
     7
370
    13
100
AcDbCircle
 10
197.2077060182492
 20
122.5325950988336
 30
0.0
 40
0.1999999889060184
100
AcDbArc
 50
316.8699340820312
 51
353.7398376464844
  0
ARC
  5
468
330
1F
100
AcDbEntity
  8
0
  6
Continuous
 62
     7
370
    13
100
AcDbCircle
 10
199.1957860013936
 20
122.3144521529321
 30
0.0
 40
1.800000008892368
100
AcDbArc
 50
151.9692840576172
 51
173.7398300170898
  0
ARC
  5
469
330
1F
100
AcDbEntity
  8
0
  6
Continuous
 62
     7
370
    13
100
AcDbCircle
 10
197.4304513448151
 20
123.254377055724
 30
0.0
 40
0.1999999889060184
100
AcDbArc
 50
331.9692993164062
 51
17.70040893554683
  0
ARC
  5
46A
330
1F
100
AcDbEntity
  8
0
  6
Continuous
 62
     7
370
    13
100
AcDbCircle
 10
198.3353882569645
 20
123.5432383023726
 30
0.0
 40
0.7499999553770635
100
AcDbArc
 50
52.29962158203122
 51
197.7004165649414
  0
ARC
  5
46B
330
1F
100
AcDbEntity
  8
0
  6
Continuous
 62
     7
370
    13
100
AcDbCircle
 10
198.9163274679304
 20
124.2948615016358
 30
0.0
 40
0.1999999889060184
100
AcDbArc
 50
232.2996215820312
 51
278.0307312011718
  0
ARC
  5
46C
330
1F
100
AcDbEntity
  8
0
  6
Continuous
 62
     7
370
    13
100
AcDbCircle
 10
199.1957860013936
 20
122.3144521529321
 30
0.0
 40
1.800000008892368
100
AcDbArc
 50
81.96929931640625
 51
98.03074741363525
  0
ARC
  5
46D
330
1F
100
AcDbEntity
  8
0
  6
Continuous
 62
     7
370
    13
100
AcDbCircle
 10
199.4752445348568
 20
124.2948615016358
 30
0.0
 40
0.1999999889060184
100
AcDbArc
 50
261.9692840576172
 51
307.7003936767578
  0
ARC
  5
46E
330
1F
100
AcDbEntity
  8
0
  6
Continuous
 62
     7
370
    13
100
AcDbCircle
 10
200.0561837458226
 20
123.5432383023726
 30
0.0
 40
0.7499999553770635
100
AcDbArc
 50
342.2996215820312
 51
127.7004013061524
  0
ARC
  5
46F
330
1F
100
AcDbEntity
  8
0
  6
Continuous
 62
     7
370
    13
100
AcDbCircle
 10
199.1957860013936
 20
122.3144521529321
 30
0.0
 40
3.600000017784737
100
AcDbArc
 50
326.9443054199219
 51
327.5126647949219
  0
CIRCLE
  5
470
330
1F
100
AcDbEntity
  8
0
  6
Continuous
 62
     7
370
    13
100
AcDbCircle
 10
260.7804891120468
 20
99.0952932369546
 30
0.0
 40
4.500000118887101
  0
CIRCLE
  5
471
330
1F
100
AcDbEntity
  8
0
  6
Continuous
 62
     7
370
    13
100
AcDbCircle
 10
260.7804891120468
 20
16.09529224698053
 30
0.0
 40
4.500000118887101
  0
CIRCLE
  5
472
330
1F
100
AcDbEntity
  8
0
  6
Continuous
 62
     7
370
    13
100
AcDbCircle
 10
266.0427917782072
 20
57.65186985696346
 30
0.0
 40
9.999999662777327
  0
LINE
  5
473
330
1F
100
AcDbEntity
  8
0
  6
CENTERX2
 62
     7
370
    13
100
AcDbLine
 10
-248.033354566498
 20
142.691418312781
 30
0.0
 11
-252.0333182435352
 21
142.691418312781
 31
0.0
  0
LINE
  5
474
330
1F
100
AcDbEntity
  8
0
  6
CENTERX2
 62
     7
370
    13
100
AcDbLine
 10
-250.0333611489987
 20
144.6913259193534
 30
0.0
 11
-250.0333611489987
 21
140.6914117302804
 31
0.0
  0
LINE
  5
475
330
1F
100
AcDbEntity
  8
0
  6
CENTERX2
 62
     7
370
    13
100
AcDbLine
 10
-318.0333684441775
 20
122.6913524877746
 30
0.0
 11
-322.0333444932057
 21
122.6913524877746
 31
0.0
  0
LINE
  5
476
330
1F
100
AcDbEntity
  8
0
  6
CENTERX2
 62
     7
370
    13
100
AcDbLine
 10
-320.0333255387141
 20
124.6913590702752
 30
0.0
 11
-320.0333255387141
 21
120.6913459052739
 31
0.0
  0
LINE
  5
477
330
1F
100
AcDbEntity
  8
0
  6
CENTERX2
 62
     7
370
    13
100
AcDbLine
 10
-318.0333684441775
 20
-11.30864314809151
 30
0.0
 11
-322.0333444932057
 21
-11.30864314809151
 31
0.0
  0
LINE
  5
478
330
1F
100
AcDbEntity
  8
0
  6
CENTERX2
 62
     7
370
    13
100
AcDbLine
 10
-320.0333255387141
 20
-9.308587077626726
 30
0.0
 11
-320.0333255387141
 21
-13.30864973059215
 31
0.0
  0
LINE
  5
479
330
1F
100
AcDbEntity
  8
0
  6
HIDDENX2
 62
     4
370
    13
100
AcDbLine
 10
-138.2511602188461
 20
-278.5037838221369
 30
0.0
 11
-138.2511602188461
 21
278.213020381867
 31
0.0
  0
LINE
  5
47A
330
1F
100
AcDbEntity
  8
0
  6
HIDDENX2
 62
     4
370
    13
100
AcDbLine
 10
121.7488542108476
 20
-278.5037838221369
 30
0.0
 11
121.7488542108476
 21
278.213020381867
 31
0.0
  0
LINE
  5
47B
330
1F
100
AcDbEntity
  8
0
  6
HIDDENX2
 62
     4
370
    13
100
AcDbLine
 10
-255.0333281172861
 20
57.2021974708623
 30
0.0
 11
-255.0333281172861
 21
77.15116697290068
 31
0.0
  0
LINE
  5
47C
330
1F
100
AcDbEntity
  8
0
  6
HIDDENX2
 62
     4
370
    13
100
AcDbLine
 10
200.6261366287508
 20
-11.10861279706296
 30
0.0
 11
217.7749039122282
 21
-11.10861279706296
 31
0.0
  0
LINE
  5
47D
330
1F
100
AcDbEntity
  8
0
  6
HIDDENX2
 62
     4
370
    13
100
AcDbLine
 10
32.63770824990934
 20
99.19139886330231
 30
0.0
 11
-35.28009335084789
 21
99.19139886330231
 31
0.0
  0
LINE
  5
47E
330
1F
100
AcDbEntity
  8
0
  6
HIDDENX2
 62
     4
370
    13
100
AcDbLine
 10
32.63770824990934
 20
16.19137312934618
 30
0.0
 11
-30.80249658797402
 21
16.19137312934618
 31
0.0
  0
LINE
  5
47F
330
1F
100
AcDbEntity
  8
0
  6
HIDDENX2
 62
     4
370
    13
100
AcDbLine
 10
-44.23533636455977
 20
16.19137312934618
 30
0.0
 11
-48.04529100330546
 21
16.19137312934618
 31
0.0
  0
LINE
  5
480
330
1F
100
AcDbEntity
  8
0
  6
CENTER
 62
     4
370
    13
100
AcDbLine
 10
-235.0333365242259
 20
-47.76419936702587
 30
0.0
 11
-235.0333365242259
 21
-48.00243442636565
 31
0.0
  0
LINE
  5
481
330
1F
100
AcDbEntity
  8
0
  6
CENTER
 62
     4
370
    13
100
AcDbLine
 10
-255.0333281172861
 20
-47.76419936702587
 30
0.0
 11
-254.896345432564
 21
-47.76419936702587
 31
0.0
  0
LINE
  5
482
330
1F
100
AcDbEntity
  8
0
  6
CENTER
 62
     4
370
    13
100
AcDbLine
 10
-235.0333365242259
 20
-67.48673668917036
 30
0.0
 11
-234.6466375724849
 21
-67.48673668917036
 31
0.0
  0
LINE
  5
483
330
1F
100
AcDbEntity
  8
0
  6
CENTER
 62
     4
370
    13
100
AcDbLine
 10
-335.0333563494823
 20
-67.48673668917036
 30
0.0
 11
-335.0333563494823
 21
-67.06099173372786
 31
0.0
  0
LINE
  5
484
330
1F
100
AcDbEntity
  8
0
  6
CENTER
 62
     4
370
    13
100
AcDbLine
 10
-201.4023553461884
 20
-23.30860841114918
 30
0.0
 11
-202.0089045785935
 21
-23.30860841114918
 31
0.0
  0
LINE
  5
485
330
1F
100
AcDbEntity
  8
0
  6
CENTER
 62
     4
370
    13
100
AcDbLine
 10
-180.7833188097793
 20
-23.30860841114918
 30
0.0
 11
-180.3298111064578
 21
-23.30860841114918
 31
0.0
  0
LINE
  5
486
330
1F
100
AcDbEntity
  8
0
  6
CENTER
 62
     4
370
    13
100
AcDbLine
 10
-217.9074079361963
 20
15.69137148372101
 30
0.0
 11
-217.4939359958589
 21
15.69137148372101
 31
0.0
  0
LINE
  5
487
330
1F
100
AcDbEntity
  8
0
  6
CENTER
 62
     4
370
    13
100
AcDbLine
 10
-201.4023553461884
 20
57.19133486273495
 30
0.0
 11
-202.1068165156321
 21
57.19133486273495
 31
0.0
  0
LINE
  5
488
330
1F
100
AcDbEntity
  8
0
  6
CENTER
 62
     4
370
    13
100
AcDbLine
 10
-217.9074079361963
 20
98.69137247369508
 30
0.0
 11
-217.9074079361963
 21
97.81820683451951
 31
0.0
  0
LINE
  5
489
330
1F
100
AcDbEntity
  8
0
  6
CENTER
 62
     4
370
    13
100
AcDbLine
 10
-180.7833188097793
 20
146.691332501854
 30
0.0
 11
-180.7833188097793
 21
146.4395377403416
 31
0.0
  0
LINE
  5
48A
330
1F
100
AcDbEntity
  8
0
  6
CENTER
 62
     4
370
    13
100
AcDbLine
 10
-263.0333668192798
 20
115.9107343380092
 30
0.0
 11
-263.0333668192798
 21
90.0468643867789
 31
0.0
  0
LINE
  5
48B
330
1F
100
AcDbEntity
  8
0
  6
CENTER
 62
     4
370
    13
100
AcDbLine
 10
-263.0333668192798
 20
26.69905357793323
 30
0.0
 11
-263.0333668192798
 21
0.8531230137014063
 31
0.0
  0
LINE
  5
48C
330
1F
100
AcDbEntity
  8
0
  6
CENTER
 62
     4
370
    13
100
AcDbLine
 10
-255.0333281172861
 20
87.79778488079319
 30
0.0
 11
-255.0333281172861
 21
22.95068671055196
 31
0.0
  0
LINE
  5
48D
330
1F
100
AcDbEntity
  8
0
  6
CENTER
 62
     4
370
    13
100
AcDbLine
 10
-306.2902766449515
 20
57.2021974708623
 30
0.0
 11
-241.0042326048351
 21
57.2021974708623
 31
0.0
  0
LINE
  5
48E
330
1F
100
AcDbEntity
  8
0
  6
CENTER
 62
     4
370
    13
100
AcDbLine
 10
13.43375530392223
 20
57.69138599632424
 30
0.0
 11
-42.8697407382715
 21
57.69138599632424
 31
0.0
  0
LINE
  5
48F
330
1F
100
AcDbEntity
  8
0
  6
CENTER
 62
     4
370
    13
100
AcDbLine
 10
-7.859851671593788
 20
1.54211919435329
 30
0.0
 11
-7.859851671593788
 21
27.40457873860578
 31
0.0
  0
LINE
  5
490
330
1F
100
AcDbEntity
  8
0
  6
CENTER
 62
     4
370
    13
100
AcDbLine
 10
-7.859851671593788
 20
90.8991708490721
 30
0.0
 11
-7.859851671593788
 21
117.6381612140613
 31
0.0
  0
LINE
  5
491
330
1F
100
AcDbEntity
  8
0
  6
CENTER
 62
     4
370
    13
100
AcDbLine
 10
-2.566247868118808
 20
24.46145527962653
 30
0.0
 11
-2.566247868118808
 21
89.63782161923154
 31
0.0
  0
LINE
  5
492
330
1F
100
AcDbEntity
  8
0
  6
CENTER
 62
     4
370
    13
100
AcDbLine
 10
278.2420698168135
 20
57.59528036997654
 30
0.0
 11
227.0366258878203
 21
57.59528036997654
 31
0.0
  0
LINE
  5
493
330
1F
100
AcDbEntity
  8
0
  6
CENTER
 62
     4
370
    13
100
AcDbLine
 10
260.7804891120468
 20
84.69125216424436
 30
0.0
 11
260.7804891120468
 21
104.8085797202657
 31
0.0
  0
LINE
  5
494
330
1F
100
AcDbEntity
  8
0
  6
CENTER
 62
     4
370
    13
100
AcDbLine
 10
260.7804891120468
 20
1.691251174270292
 30
0.0
 11
260.7804891120468
 21
21.80857873029163
 31
0.0
  0
LINE
  5
495
330
1F
100
AcDbEntity
  8
0
  6
CENTER
 62
     4
370
    13
100
AcDbLine
 10
227.9267658986937
 20
57.59528036997654
 30
0.0
 11
282.0924808662385
 21
57.59528036997654
 31
0.0
  0
LINE
  5
496
330
1F
100
AcDbEntity
  8
0
  6
CENTER
 62
     4
370
    13
100
AcDbLine
 10
266.0427917782072
 20
90.55790184840589
 30
0.0
 11
266.0427917782072
 21
29.35242500690947
 31
0.0
  0
LINE
  5
497
330
1F
100
AcDbEntity
  8
0
  6
CENTER
 62
     4
370
    13
100
AcDbLine
 10
-228.1738098156493
 20
98.69137247369508
 30
0.0
 11
-286.0263657391661
 21
98.69137247369508
 31
0.0
  0
LINE
  5
498
330
1F
100
AcDbEntity
  8
0
  6
CENTER
 62
     4
370
    13
100
AcDbLine
 10
-228.1738098156493
 20
15.69137148372101
 30
0.0
 11
-287.817409393112
 21
15.69137148372101
 31
0.0
  0
LINE
  5
499
330
1F
100
AcDbEntity
  8
0
  6
CENTER
 62
     4
370
    13
100
AcDbLine
 10
11.12227147516387
 20
99.19139886330231
 30
0.0
 11
-35.28009335084789
 21
99.19139886330231
 31
0.0
  0
LINE
  5
49A
330
1F
100
AcDbEntity
  8
0
  6
CENTER
 62
     4
370
    13
100
AcDbLine
 10
1.933742198525579
 20
16.19137312934618
 30
0.0
 11
-31.69800604295597
 21
16.19137312934618
 31
0.0
  0
LINE
  5
49B
330
1F
100
AcDbEntity
  8
0
  6
CENTER
 62
     4
370
    13
100
AcDbLine
 10
237.8541999678127
 20
99.0952932369546
 30
0.0
 11
282.0924808662385
 21
99.0952932369546
 31
0.0
  0
LINE
  5
49C
330
1F
100
AcDbEntity
  8
0
  6
CENTER
 62
     4
370
    13
100
AcDbLine
 10
236.0631810578489
 20
16.09529224698053
 30
0.0
 11
282.0924808662385
 21
16.09529224698053
 31
0.0
  0
LINE
  5
49D
330
1F
100
AcDbEntity
  8
0
  6
Continuous
 62
     6
370
    13
100
AcDbLine
 10
-180.7833188097793
 20
-23.30860841114918
 30
0.0
 11
-181.818607019457
 21
-19.44493458733632
 31
0.0
  0
LINE
  5
49E
330
1F
100
AcDbEntity
  8
0
  6
Continuous
 62
     6
370
    13
100
AcDbLine
 10
-180.7833188097793
 20
-23.30860841114918
 30
0.0
 11
-179.7480306001016
 21
-19.44493458733632
 31
0.0
  0
LINE
  5
49F
330
1F
100
AcDbEntity
  8
0
  6
Continuous
 62
     6
370
    13
100
AcDbLine
 10
-180.7833188097793
 20
146.691332501854
 30
0.0
 11
-181.818607019457
 21
142.8276091900771
 31
0.0
  0
LINE
  5
4A0
330
1F
100
AcDbEntity
  8
0
  6
Continuous
 62
     6
370
    13
100
AcDbLine
 10
-180.7833188097793
 20
146.691332501854
 30
0.0
 11
-179.7480306001016
 21
142.8276091900771
 31
0.0
  0
LINE
  5
4A1
330
1F
100
AcDbEntity
  8
0
  6
Continuous
 62
     6
370
    13
100
AcDbLine
 10
-335.0333563494823
 20
-67.48673668917036
 30
0.0
 11
-331.1696454096964
 21
-66.45144847949268
 31
0.0
  0
LINE
  5
4A2
330
1F
100
AcDbEntity
  8
0
  6
Continuous
 62
     6
370
    13
100
AcDbLine
 10
-335.0333563494823
 20
-67.48673668917036
 30
0.0
 11
-331.1696454096964
 21
-68.52202489884803
 31
0.0
  0
LINE
  5
4A3
330
1F
100
AcDbEntity
  8
0
  6
Continuous
 62
     6
370
    13
100
AcDbLine
 10
-235.0333365242259
 20
-67.48673668917036
 30
0.0
 11
-238.8970598360029
 21
-66.45144847949268
 31
0.0
  0
LINE
  5
4A4
330
1F
100
AcDbEntity
  8
0
  6
Continuous
 62
     6
370
    13
100
AcDbLine
 10
-235.0333365242259
 20
-67.48673668917036
 30
0.0
 11
-238.8970598360029
 21
-68.52202489884803
 31
0.0
  0
LINE
  5
4A5
330
1F
100
AcDbEntity
  8
0
  6
Continuous
 62
     6
370
    13
100
AcDbLine
 10
-201.4023553461884
 20
-23.30860841114918
 30
0.0
 11
-202.437594067902
 21
-19.44493458733632
 31
0.0
  0
LINE
  5
4A6
330
1F
100
AcDbEntity
  8
0
  6
Continuous
 62
     6
370
    13
100
AcDbLine
 10
-201.4023553461884
 20
-23.30860841114918
 30
0.0
 11
-200.3670176485466
 21
-19.44493458733632
 31
0.0
  0
LINE
  5
4A7
330
1F
100
AcDbEntity
  8
0
  6
Continuous
 62
     6
370
    13
100
AcDbLine
 10
-201.4023553461884
 20
57.19133486273495
 30
0.0
 11
-202.437594067902
 21
53.32768578290415
 31
0.0
  0
LINE
  5
4A8
330
1F
100
AcDbEntity
  8
0
  6
Continuous
 62
     6
370
    13
100
AcDbLine
 10
-201.4023553461884
 20
57.19133486273495
 30
0.0
 11
-200.3670176485466
 21
53.32768578290415
 31
0.0
  0
LINE
  5
4A9
330
1F
100
AcDbEntity
  8
0
  6
Continuous
 62
     6
370
    13
100
AcDbLine
 10
-217.9074079361963
 20
15.69137148372101
 30
0.0
 11
-218.9426961458739
 21
19.55509479549801
 31
0.0
  0
LINE
  5
4AA
330
1F
100
AcDbEntity
  8
0
  6
Continuous
 62
     6
370
    13
100
AcDbLine
 10
-217.9074079361963
 20
15.69137148372101
 30
0.0
 11
-216.8721197265186
 21
19.55509479549801
 31
0.0
  0
LINE
  5
4AB
330
1F
100
AcDbEntity
  8
0
  6
Continuous
 62
     6
370
    13
100
AcDbLine
 10
-217.9074079361963
 20
98.69137247369508
 30
0.0
 11
-218.9426961458739
 21
94.82764916191809
 31
0.0
  0
LINE
  5
4AC
330
1F
100
AcDbEntity
  8
0
  6
Continuous
 62
     6
370
    13
100
AcDbLine
 10
-217.9074079361963
 20
98.69137247369508
 30
0.0
 11
-216.8721197265186
 21
94.82764916191809
 31
0.0
  0
LINE
  5
4AD
330
1F
100
AcDbEntity
  8
0
  6
Continuous
 62
     6
370
    13
100
AcDbLine
 10
-255.0333281172861
 20
-47.76419936702587
 30
0.0
 11
-251.1696790374554
 21
-46.72891115734819
 31
0.0
  0
LINE
  5
4AE
330
1F
100
AcDbEntity
  8
0
  6
Continuous
 62
     6
370
    13
100
AcDbLine
 10
-255.0333281172861
 20
-47.76419936702587
 30
0.0
 11
-251.1696790374554
 21
-48.79948757670354
 31
0.0
  0
LINE
  5
4AF
330
1F
100
AcDbEntity
  8
0
  6
Continuous
 62
     6
370
    13
100
AcDbLine
 10
-235.0333365242259
 20
-47.76419936702587
 30
0.0
 11
-238.8970598360029
 21
-46.72891115734819
 31
0.0
  0
LINE
  5
4B0
330
1F
100
AcDbEntity
  8
0
  6
Continuous
 62
     6
370
    13
100
AcDbLine
 10
-235.0333365242259
 20
-47.76419936702587
 30
0.0
 11
-238.8970598360029
 21
-48.79948757670354
 31
0.0
  0
LINE
  5
4B1
330
1F
100
AcDbEntity
  8
0
  6
Continuous
 62
     6
370
    13
100
AcDbLine
 10
-268.9273709756162
 20
70.59069603158423
 30
0.0
 11
-265.4633000901922
 21
72.59070261408488
 31
0.0
  0
LINE
  5
4B2
330
1F
100
AcDbEntity
  8
0
  6
Continuous
 62
     6
370
    13
100
AcDbLine
 10
-268.9273709756162
 20
70.59069603158423
 30
0.0
 11
-264.927394926588
 21
70.59069603158423
 31
0.0
  0
LINE
  5
4B3
330
1F
100
AcDbEntity
  8
0
  6
Continuous
 62
     6
370
    13
100
AcDbLine
 10
-249.6089028806236
 20
75.7670628480264
 30
0.0
 11
-253.6088665576608
 21
75.7670628480264
 31
0.0
  0
LINE
  5
4B4
330
1F
100
AcDbEntity
  8
0
  6
Continuous
 62
     6
370
    13
100
AcDbLine
 10
-249.6089028806236
 20
75.7670628480264
 30
0.0
 11
-253.0730108820208
 21
73.76710575348989
 31
0.0
  0
LINE
  5
4B5
330
1F
100
AcDbEntity
  8
0
  6
Continuous
 62
     6
370
    13
100
AcDbLine
 10
-270.5563168030421
 20
109.380698494635
 30
0.0
 11
-268.1318395801754
 21
110.7804655601576
 31
0.0
  0
LINE
  5
4B6
330
1F
100
AcDbEntity
  8
0
  6
Continuous
 62
     6
370
    13
100
AcDbLine
 10
-270.5563168030421
 20
109.380698494635
 30
0.0
 11
-267.8794509630934
 21
109.380698494635
 31
0.0
  0
LINE
  5
4B7
330
1F
100
AcDbEntity
  8
0
  6
Continuous
 62
     6
370
    13
100
AcDbLine
 10
-261.862976467517
 20
111.7100474784456
 30
0.0
 11
-264.4986188333423
 21
110.1883668132796
 31
0.0
  0
LINE
  5
4B8
330
1F
100
AcDbEntity
  8
0
  6
Continuous
 62
     6
370
    13
100
AcDbLine
 10
-201.4023553461884
 20
57.19133486273495
 30
0.0
 11
-202.4376435558661
 21
61.05505817451194
 31
0.0
  0
LINE
  5
4B9
330
1F
100
AcDbEntity
  8
0
  6
Continuous
 62
     6
370
    13
100
AcDbLine
 10
-201.4023553461884
 20
57.19133486273495
 30
0.0
 11
-200.3670176485466
 21
61.05505817451194
 31
0.0
  0
LINE
  5
4BA
330
1F
100
AcDbEntity
  8
0
  6
Continuous
 62
     6
370
    13
100
AcDbLine
 10
-201.4023553461884
 20
146.691332501854
 30
0.0
 11
-202.4376435558661
 21
142.8276091900771
 31
0.0
  0
LINE
  5
4BB
330
1F
100
AcDbEntity
  8
0
  6
Continuous
 62
     6
370
    13
100
AcDbLine
 10
-201.4023553461884
 20
146.691332501854
 30
0.0
 11
-200.3670176485466
 21
142.8276091900771
 31
0.0
  0
LINE
  5
4BC
330
1F
100
AcDbEntity
  8
0
  6
Continuous
 62
     6
370
    13
100
AcDbLine
 10
-82.56623898434191
 20
-61.13376878146664
 30
0.0
 11
-79.76507175048027
 21
-60.38318482945033
 31
0.0
  0
LINE
  5
4BD
330
1F
100
AcDbEntity
  8
0
  6
Continuous
 62
     6
370
    13
100
AcDbLine
 10
-82.56623898434191
 20
-61.13376878146664
 30
0.0
 11
-79.76507175048027
 21
-61.88435273348296
 31
0.0
  0
LINE
  5
4BE
330
1F
100
AcDbEntity
  8
0
  6
Continuous
 62
     6
370
    13
100
AcDbLine
 10
70.28978446566907
 20
146.6913819898182
 30
0.0
 11
69.53925000161689
 21
143.8902147559565
 31
0.0
  0
LINE
  5
4BF
330
1F
100
AcDbEntity
  8
0
  6
Continuous
 62
     6
370
    13
100
AcDbLine
 10
70.28978446566907
 20
146.6913819898182
 30
0.0
 11
71.04036841768539
 21
143.8902147559565
 31
0.0
  0
LINE
  5
4C0
330
1F
100
AcDbEntity
  8
0
  6
Continuous
 62
     6
370
    13
100
AcDbLine
 10
32.63770824990934
 20
99.19139886330231
 30
0.0
 11
31.88717378585716
 21
96.39020688545861
 31
0.0
  0
LINE
  5
4C1
330
1F
100
AcDbEntity
  8
0
  6
Continuous
 62
     6
370
    13
100
AcDbLine
 10
32.63770824990934
 20
99.19139886330231
 30
0.0
 11
33.38829220192565
 21
96.39020688545861
 31
0.0
  0
LINE
  5
4C2
330
1F
100
AcDbEntity
  8
0
  6
Continuous
 62
     6
370
    13
100
AcDbLine
 10
49.67082216120616
 20
146.6913819898182
 30
0.0
 11
48.63553395152849
 21
142.8276586780412
 31
0.0
  0
LINE
  5
4C3
330
1F
100
AcDbEntity
  8
0
  6
Continuous
 62
     6
370
    13
100
AcDbLine
 10
49.67082216120616
 20
146.6913819898182
 30
0.0
 11
50.70611037088383
 21
142.8276586780412
 31
0.0
  0
LINE
  5
4C4
330
1F
100
AcDbEntity
  8
0
  6
Continuous
 62
     6
370
    13
100
AcDbLine
 10
-2.566247868118808
 20
-49.47955117982929
 30
0.0
 11
0.2349193657428259
 21
-48.72896722781297
 31
0.0
  0
LINE
  5
4C5
330
1F
100
AcDbEntity
  8
0
  6
Continuous
 62
     6
370
    13
100
AcDbLine
 10
-2.566247868118808
 20
-49.47955117982929
 30
0.0
 11
0.2349193657428259
 21
-50.2301351318456
 31
0.0
  0
LINE
  5
4C6
330
1F
100
AcDbEntity
  8
0
  6
Continuous
 62
     6
370
    13
100
AcDbLine
 10
17.43376846892352
 20
-49.47955117982929
 30
0.0
 11
14.63255174709775
 21
-48.72896722781297
 31
0.0
  0
LINE
  5
4C7
330
1F
100
AcDbEntity
  8
0
  6
Continuous
 62
     6
370
    13
100
AcDbLine
 10
17.43376846892352
 20
-49.47955117982929
 30
0.0
 11
14.63255174709775
 21
-50.2301351318456
 31
0.0
  0
LINE
  5
4C8
330
1F
100
AcDbEntity
  8
0
  6
Continuous
 62
     6
370
    13
100
AcDbLine
 10
17.43376846892352
 20
-61.13376878146664
 30
0.0
 11
14.63255174709775
 21
-60.38318482945033
 31
0.0
  0
LINE
  5
4C9
330
1F
100
AcDbEntity
  8
0
  6
Continuous
 62
     6
370
    13
100
AcDbLine
 10
17.43376846892352
 20
-61.13376878146664
 30
0.0
 11
14.63255174709775
 21
-61.88435273348296
 31
0.0
  0
LINE
  5
4CA
330
1F
100
AcDbEntity
  8
0
  6
Continuous
 62
     6
370
    13
100
AcDbLine
 10
70.28978446566907
 20
-23.30860841114918
 30
0.0
 11
69.53925000161689
 21
-20.50741643330548
 31
0.0
  0
LINE
  5
4CB
330
1F
100
AcDbEntity
  8
0
  6
Continuous
 62
     6
370
    13
100
AcDbLine
 10
70.28978446566907
 20
-23.30860841114918
 30
0.0
 11
71.04036841768539
 21
-20.50741643330548
 31
0.0
  0
LINE
  5
4CC
330
1F
100
AcDbEntity
  8
0
  6
Continuous
 62
     6
370
    13
100
AcDbLine
 10
32.63770824990934
 20
16.19137312934618
 30
0.0
 11
31.88717378585716
 21
18.99258985117194
 31
0.0
  0
LINE
  5
4CD
330
1F
100
AcDbEntity
  8
0
  6
Continuous
 62
     6
370
    13
100
AcDbLine
 10
32.63770824990934
 20
16.19137312934618
 30
0.0
 11
33.38829220192565
 21
18.99258985117194
 31
0.0
  0
LINE
  5
4CE
330
1F
100
AcDbEntity
  8
0
  6
Continuous
 62
     6
370
    13
100
AcDbLine
 10
49.67082216120616
 20
-23.30860841114918
 30
0.0
 11
48.92023820918985
 21
-20.50741643330548
 31
0.0
  0
LINE
  5
4CF
330
1F
100
AcDbEntity
  8
0
  6
Continuous
 62
     6
370
    13
100
AcDbLine
 10
49.67082216120616
 20
-23.30860841114918
 30
0.0
 11
50.42135662525834
 21
-20.50741643330548
 31
0.0
  0
LINE
  5
4D0
330
1F
100
AcDbEntity
  8
0
  6
Continuous
 62
     6
370
    13
100
AcDbLine
 10
49.67082216120616
 20
57.69138599632424
 30
0.0
 11
48.92023820918985
 21
54.89021876246261
 31
0.0
  0
LINE
  5
4D1
330
1F
100
AcDbEntity
  8
0
  6
Continuous
 62
     6
370
    13
100
AcDbLine
 10
49.67082216120616
 20
57.69138599632424
 30
0.0
 11
50.42135662525834
 21
54.89021876246261
 31
0.0
  0
LINE
  5
4D2
330
1F
100
AcDbEntity
  8
0
  6
Continuous
 62
     6
370
    13
100
AcDbLine
 10
49.67082216120616
 20
57.69138599632424
 30
0.0
 11
48.63553395152849
 21
61.55508456411917
 31
0.0
  0
LINE
  5
4D3
330
1F
100
AcDbEntity
  8
0
  6
Continuous
 62
     6
370
    13
100
AcDbLine
 10
49.67082216120616
 20
57.69138599632424
 30
0.0
 11
50.70611037088383
 21
61.55508456411917
 31
0.0
  0
LINE
  5
4D4
330
1F
100
AcDbEntity
  8
0
  6
Continuous
 62
     6
370
    13
100
AcDbLine
 10
-16.24093532542611
 20
70.08888807526819
 30
0.0
 11
-12.776827324029
 21
72.08889465776883
 31
0.0
  0
LINE
  5
4D5
330
1F
100
AcDbEntity
  8
0
  6
Continuous
 62
     6
370
    13
100
AcDbLine
 10
-16.24093532542611
 20
70.08888807526819
 30
0.0
 11
-12.24092216042482
 21
70.08888807526819
 31
0.0
  0
LINE
  5
4D6
330
1F
100
AcDbEntity
  8
0
  6
Continuous
 62
     6
370
    13
100
AcDbLine
 10
3.077607001512661
 20
75.26527963569242
 30
0.0
 11
-0.9224061634886311
 21
75.26527963569242
 31
0.0
  0
LINE
  5
4D7
330
1F
100
AcDbEntity
  8
0
  6
Continuous
 62
     6
370
    13
100
AcDbLine
 10
3.077607001512661
 20
75.26527963569242
 30
0.0
 11
-0.3865009998844471
 21
73.26527305319178
 31
0.0
  0
LINE
  5
4D8
330
1F
100
AcDbEntity
  8
0
  6
Continuous
 62
     6
370
    13
100
AcDbLine
 10
-14.71635961435823
 20
107.3935340388271
 30
0.0
 11
-11.25225161296112
 21
109.3935406213277
 31
0.0
  0
LINE
  5
4D9
330
1F
100
AcDbEntity
  8
0
  6
Continuous
 62
     6
370
    13
100
AcDbLine
 10
-14.71635961435823
 20
107.3935340388271
 30
0.0
 11
-10.71634644935693
 21
107.3935340388271
 31
0.0
  0
LINE
  5
4DA
330
1F
100
AcDbEntity
  8
0
  6
Continuous
 62
     6
370
    13
100
AcDbLine
 10
-6.023031650824123
 20
109.7229077666198
 30
0.0
 11
-10.02302007184335
 21
109.7229077666198
 31
0.0
  0
LINE
  5
4DB
330
1F
100
AcDbEntity
  8
0
  6
Continuous
 62
     6
370
    13
100
AcDbLine
 10
-6.023031650824123
 20
109.7229077666198
 30
0.0
 11
-9.487114908239164
 21
107.7229259281012
 31
0.0
  0
LINE
  5
4DC
330
1F
100
AcDbEntity
  8
0
  6
Continuous
 62
     6
370
    13
100
AcDbLine
 10
186.0428254059661
 20
-60.31486669496371
 30
0.0
 11
189.9065487177431
 21
-59.2796032292681
 31
0.0
  0
LINE
  5
4DD
330
1F
100
AcDbEntity
  8
0
  6
Continuous
 62
     6
370
    13
100
AcDbLine
 10
186.0428254059661
 20
-60.31486669496371
 30
0.0
 11
189.9065487177431
 21
-61.35015490464139
 31
0.0
  0
LINE
  5
4DE
330
1F
100
AcDbEntity
  8
0
  6
Continuous
 62
     6
370
    13
100
AcDbLine
 10
286.0428576032136
 20
-60.31486669496371
 30
0.0
 11
282.1791837794008
 21
-59.2796032292681
 31
0.0
  0
LINE
  5
4DF
330
1F
100
AcDbEntity
  8
0
  6
Continuous
 62
     6
370
    13
100
AcDbLine
 10
286.0428576032136
 20
-60.31486669496371
 30
0.0
 11
282.1791837794008
 21
-61.35015490464139
 31
0.0
  0
LINE
  5
4E0
330
1F
100
AcDbEntity
  8
0
  6
Continuous
 62
     6
370
    13
100
AcDbLine
 10
266.0428412661713
 20
-47.7641746230438
 30
0.0
 11
269.9065645779483
 21
-46.72891115734819
 31
0.0
  0
LINE
  5
4E1
330
1F
100
AcDbEntity
  8
0
  6
Continuous
 62
     6
370
    13
100
AcDbLine
 10
266.0428412661713
 20
-47.7641746230438
 30
0.0
 11
269.9065645779483
 21
-48.79946283272147
 31
0.0
  0
LINE
  5
4E2
330
1F
100
AcDbEntity
  8
0
  6
Continuous
 62
     6
370
    13
100
AcDbLine
 10
286.0428576032136
 20
-47.7641746230438
 30
0.0
 11
282.1791837794008
 21
-46.72891115734819
 31
0.0
  0
LINE
  5
4E3
330
1F
100
AcDbEntity
  8
0
  6
Continuous
 62
     6
370
    13
100
AcDbLine
 10
286.0428576032136
 20
-47.7641746230438
 30
0.0
 11
282.1791837794008
 21
-48.79946283272147
 31
0.0
  0
LINE
  5
4E4
330
1F
100
AcDbEntity
  8
0
  6
Continuous
 62
     6
370
    13
100
AcDbLine
 10
314.8153084144578
 20
-23.30860841114918
 30
0.0
 11
313.7800202047802
 21
-19.44490984335425
 31
0.0
  0
LINE
  5
4E5
330
1F
100
AcDbEntity
  8
0
  6
Continuous
 62
     6
370
    13
100
AcDbLine
 10
314.8153084144578
 20
-23.30860841114918
 30
0.0
 11
315.8505966241355
 21
-19.44490984335425
 31
0.0
  0
LINE
  5
4E6
330
1F
100
AcDbEntity
  8
0
  6
Continuous
 62
     6
370
    13
100
AcDbLine
 10
254.0187506205984
 20
106.9438369087438
 30
0.0
 11
257.4828586219955
 21
108.9438434912445
 31
0.0
  0
LINE
  5
4E7
330
1F
100
AcDbEntity
  8
0
  6
Continuous
 62
     6
370
    13
100
AcDbLine
 10
254.0187506205984
 20
106.9438369087438
 30
0.0
 11
258.0187142976356
 21
106.9438369087438
 31
0.0
  0
LINE
  5
4E8
330
1F
100
AcDbEntity
  8
0
  6
Continuous
 62
     6
370
    13
100
AcDbLine
 10
262.7120538401505
 20
109.2731858925545
 30
0.0
 11
258.7120901631133
 21
109.2731858925545
 31
0.0
  0
LINE
  5
4E9
330
1F
100
AcDbEntity
  8
0
  6
Continuous
 62
     6
370
    13
100
AcDbLine
 10
262.7120538401505
 20
109.2731858925545
 30
0.0
 11
259.2479458387534
 21
107.2731793100538
 31
0.0
  0
LINE
  5
4EA
330
1F
100
AcDbEntity
  8
0
  6
Continuous
 62
     6
370
    13
100
AcDbLine
 10
301.2869321231119
 20
16.09529224698053
 30
0.0
 11
300.2516439134342
 21
19.95899081477546
 31
0.0
  0
LINE
  5
4EB
330
1F
100
AcDbEntity
  8
0
  6
Continuous
 62
     6
370
    13
100
AcDbLine
 10
301.2869321231119
 20
16.09529224698053
 30
0.0
 11
302.3221708448255
 21
19.95899081477546
 31
0.0
  0
LINE
  5
4EC
330
1F
100
AcDbEntity
  8
0
  6
Continuous
 62
     6
370
    13
100
AcDbLine
 10
301.2869321231119
 20
99.0952932369546
 30
0.0
 11
300.2516439134342
 21
95.23159466915968
 31
0.0
  0
LINE
  5
4ED
330
1F
100
AcDbEntity
  8
0
  6
Continuous
 62
     6
370
    13
100
AcDbLine
 10
301.2869321231119
 20
99.0952932369546
 30
0.0
 11
302.3221708448255
 21
95.23159466915968
 31
0.0
  0
LINE
  5
4EE
330
1F
100
AcDbEntity
  8
0
  6
Continuous
 62
     6
370
    13
100
AcDbLine
 10
252.3163646543981
 20
70.24262243584963
 30
0.0
 11
255.7804726557952
 21
72.2426042743682
 31
0.0
  0
LINE
  5
4EF
330
1F
100
AcDbEntity
  8
0
  6
Continuous
 62
     6
370
    13
100
AcDbLine
 10
252.3163646543981
 20
70.24262243584963
 30
0.0
 11
256.3163778193993
 21
70.24262243584963
 31
0.0
  0
LINE
  5
4F0
330
1F
100
AcDbEntity
  8
0
  6
Continuous
 62
     6
370
    13
100
AcDbLine
 10
271.6348822373548
 20
75.4189892522918
 30
0.0
 11
267.6348690723535
 21
75.4189892522918
 31
0.0
  0
LINE
  5
4F1
330
1F
100
AcDbEntity
  8
0
  6
Continuous
 62
     6
370
    13
100
AcDbLine
 10
271.6348822373548
 20
75.4189892522918
 30
0.0
 11
268.1707742359577
 21
73.41900741377322
 31
0.0
  0
LINE
  5
4F2
330
1F
100
AcDbEntity
  8
0
  6
Continuous
 62
     6
370
    13
100
AcDbLine
 10
314.8153084144578
 20
57.69138599632424
 30
0.0
 11
313.7800696927443
 21
53.82768742852932
 31
0.0
  0
LINE
  5
4F3
330
1F
100
AcDbEntity
  8
0
  6
Continuous
 62
     6
370
    13
100
AcDbLine
 10
314.8153084144578
 20
57.69138599632424
 30
0.0
 11
315.8505966241355
 21
53.82768742852932
 31
0.0
  0
LINE
  5
4F4
330
1F
100
AcDbEntity
  8
0
  6
Continuous
 62
     6
370
    13
100
AcDbLine
 10
314.8153084144578
 20
57.69138599632424
 30
0.0
 11
313.7800202047802
 21
53.82768742852932
 31
0.0
  0
LINE
  5
4F5
330
1F
100
AcDbEntity
  8
0
  6
Continuous
 62
     6
370
    13
100
AcDbLine
 10
314.8153084144578
 20
57.69138599632424
 30
0.0
 11
315.8505966241355
 21
53.82768742852932
 31
0.0
  0
LINE
  5
4F6
330
1F
100
AcDbEntity
  8
0
  6
Continuous
 62
     6
370
    13
100
AcDbLine
 10
330.4919572288491
 20
-23.30860841114918
 30
0.0
 11
329.4567185071355
 21
-19.44490984335425
 31
0.0
  0
LINE
  5
4F7
330
1F
100
AcDbEntity
  8
0
  6
Continuous
 62
     6
370
    13
100
AcDbLine
 10
330.4919572288491
 20
-23.30860841114918
 30
0.0
 11
331.5272454385267
 21
-19.44490984335425
 31
0.0
  0
LINE
  5
4F8
330
1F
100
AcDbEntity
  8
0
  6
Continuous
 62
     6
370
    13
100
AcDbLine
 10
330.4919572288491
 20
146.6912830138899
 30
0.0
 11
329.4567185071355
 21
142.8276091900771
 31
0.0
  0
LINE
  5
4F9
330
1F
100
AcDbEntity
  8
0
  6
Continuous
 62
     6
370
    13
100
AcDbLine
 10
330.4919572288491
 20
146.6912830138899
 30
0.0
 11
331.5272454385267
 21
142.8276091900771
 31
0.0
  0
LINE
  5
4FA
330
1F
100
AcDbEntity
  8
0
  6
Continuous
 62
     6
370
    13
100
AcDbLine
 10
314.8153084144578
 20
57.69138599632424
 30
0.0
 11
313.7800202047802
 21
61.55508456411917
 31
0.0
  0
LINE
  5
4FB
330
1F
100
AcDbEntity
  8
0
  6
Continuous
 62
     6
370
    13
100
AcDbLine
 10
314.8153084144578
 20
57.69138599632424
 30
0.0
 11
315.8505966241355
 21
61.55508456411917
 31
0.0
  0
LINE
  5
4FC
330
1F
100
AcDbEntity
  8
0
  6
Continuous
 62
     6
370
    13
100
AcDbLine
 10
314.8153084144578
 20
146.6912830138899
 30
0.0
 11
313.7800202047802
 21
142.8275597021129
 31
0.0
  0
LINE
  5
4FD
330
1F
100
AcDbEntity
  8
0
  6
Continuous
 62
     6
370
    13
100
AcDbLine
 10
314.8153084144578
 20
146.6912830138899
 30
0.0
 11
315.8505966241355
 21
142.8275597021129
 31
0.0
  0
CIRCLE
  5
4FE
330
1F
100
AcDbEntity
  8
0
  6
Continuous
 62
     6
370
    13
100
AcDbCircle
 10
-235.0333365242259
 20
-47.76419936702587
 30
0.0
 40
0.8108108043670654
  0
CIRCLE
  5
4FF
330
1F
100
AcDbEntity
  8
0
  6
Continuous
 62
     6
370
    13
100
AcDbCircle
 10
-255.0333281172861
 20
-47.76419936702587
 30
0.0
 40
0.8108108043670654
  0
CIRCLE
  5
500
330
1F
100
AcDbEntity
  8
0
  6
Continuous
 62
     6
370
    13
100
AcDbCircle
 10
-235.0333365242259
 20
-67.48673668917036
 30
0.0
 40
0.8108108043670654
  0
CIRCLE
  5
501
330
1F
100
AcDbEntity
  8
0
  6
Continuous
 62
     6
370
    13
100
AcDbCircle
 10
-335.0333563494823
 20
-67.48673668917036
 30
0.0
 40
0.8108108043670654
  0
CIRCLE
  5
502
330
1F
100
AcDbEntity
  8
0
  6
Continuous
 62
     6
370
    13
100
AcDbCircle
 10
-201.4023553461884
 20
-23.30860841114918
 30
0.0
 40
0.8108108043670654
  0
CIRCLE
  5
503
330
1F
100
AcDbEntity
  8
0
  6
Continuous
 62
     6
370
    13
100
AcDbCircle
 10
-180.7833188097793
 20
-23.30860841114918
 30
0.0
 40
0.8108108043670654
  0
CIRCLE
  5
504
330
1F
100
AcDbEntity
  8
0
  6
Continuous
 62
     6
370
    13
100
AcDbCircle
 10
-217.9074079361963
 20
15.69137148372101
 30
0.0
 40
0.8108108043670654
  0
CIRCLE
  5
505
330
1F
100
AcDbEntity
  8
0
  6
Continuous
 62
     6
370
    13
100
AcDbCircle
 10
-201.4023553461884
 20
57.19133486273495
 30
0.0
 40
0.8108108043670654
  0
CIRCLE
  5
506
330
1F
100
AcDbEntity
  8
0
  6
Continuous
 62
     6
370
    13
100
AcDbCircle
 10
-217.9074079361963
 20
98.69137247369508
 30
0.0
 40
0.8108108043670654
  0
CIRCLE
  5
507
330
1F
100
AcDbEntity
  8
0
  6
Continuous
 62
     6
370
    13
100
AcDbCircle
 10
-180.7833188097793
 20
146.691332501854
 30
0.0
 40
0.8108108043670654
  0
CIRCLE
  5
508
330
1F
100
AcDbEntity
  8
0
  6
Continuous
 62
     6
370
    13
100
AcDbCircle
 10
-270.5563168030421
 20
109.380698494635
 30
0.0
 40
0.8108108043670654
  0
CIRCLE
  5
509
330
1F
100
AcDbEntity
  8
0
  6
Continuous
 62
     6
370
    13
100
AcDbCircle
 10
-261.862976467517
 20
111.7100474784456
 30
0.0
 40
0.8108108043670654
  0
CIRCLE
  5
50A
330
1F
100
AcDbEntity
  8
0
  6
Continuous
 62
     6
370
    13
100
AcDbCircle
 10
-201.4023553461884
 20
146.691332501854
 30
0.0
 40
0.8108108043670654
  0
CIRCLE
  5
50B
330
1F
100
AcDbEntity
  8
0
  6
Continuous
 62
     6
370
    13
100
AcDbCircle
 10
-82.56623898434191
 20
-61.13376878146664
 30
0.0
 40
0.8108108043670654
  0
CIRCLE
  5
50C
330
1F
100
AcDbEntity
  8
0
  6
Continuous
 62
     6
370
    13
100
AcDbCircle
 10
-2.566247868118808
 20
-49.47955117982929
 30
0.0
 40
0.8108108043670654
  0
CIRCLE
  5
50D
330
1F
100
AcDbEntity
  8
0
  6
Continuous
 62
     6
370
    13
100
AcDbCircle
 10
17.43376846892352
 20
-49.47955117982929
 30
0.0
 40
0.8108108043670654
  0
CIRCLE
  5
50E
330
1F
100
AcDbEntity
  8
0
  6
Continuous
 62
     6
370
    13
100
AcDbCircle
 10
17.43376846892352
 20
-61.13376878146664
 30
0.0
 40
0.8108108043670654
  0
CIRCLE
  5
50F
330
1F
100
AcDbEntity
  8
0
  6
Continuous
 62
     6
370
    13
100
AcDbCircle
 10
49.67082216120616
 20
-23.30860841114918
 30
0.0
 40
0.8108108043670654
  0
CIRCLE
  5
510
330
1F
100
AcDbEntity
  8
0
  6
Continuous
 62
     6
370
    13
100
AcDbCircle
 10
70.28978446566907
 20
-23.30860841114918
 30
0.0
 40
0.8108108043670654
  0
CIRCLE
  5
511
330
1F
100
AcDbEntity
  8
0
  6
Continuous
 62
     6
370
    13
100
AcDbCircle
 10
32.63770824990934
 20
16.19137312934618
 30
0.0
 40
0.8108108043670654
  0
CIRCLE
  5
512
330
1F
100
AcDbEntity
  8
0
  6
Continuous
 62
     6
370
    13
100
AcDbCircle
 10
32.63770824990934
 20
99.19139886330231
 30
0.0
 40
0.8108108043670654
  0
CIRCLE
  5
513
330
1F
100
AcDbEntity
  8
0
  6
Continuous
 62
     6
370
    13
100
AcDbCircle
 10
49.67082216120616
 20
57.69138599632424
 30
0.0
 40
0.8108108043670654
  0
CIRCLE
  5
514
330
1F
100
AcDbEntity
  8
0
  6
Continuous
 62
     6
370
    13
100
AcDbCircle
 10
49.67082216120616
 20
146.6913819898182
 30
0.0
 40
0.8108108043670654
  0
CIRCLE
  5
515
330
1F
100
AcDbEntity
  8
0
  6
Continuous
 62
     6
370
    13
100
AcDbCircle
 10
70.28978446566907
 20
146.6913819898182
 30
0.0
 40
0.8108108043670654
  0
CIRCLE
  5
516
330
1F
100
AcDbEntity
  8
0
  6
Continuous
 62
     6
370
    13
100
AcDbCircle
 10
314.8153084144578
 20
146.6912830138899
 30
0.0
 40
0.8108108043670654
  0
CIRCLE
  5
517
330
1F
100
AcDbEntity
  8
0
  6
Continuous
 62
     6
370
    13
100
AcDbCircle
 10
330.4919572288491
 20
146.6912830138899
 30
0.0
 40
0.8108108043670654
  0
CIRCLE
  5
518
330
1F
100
AcDbEntity
  8
0
  6
Continuous
 62
     6
370
    13
100
AcDbCircle
 10
314.8153084144578
 20
57.69138599632424
 30
0.0
 40
0.8108108043670654
  0
CIRCLE
  5
519
330
1F
100
AcDbEntity
  8
0
  6
Continuous
 62
     6
370
    13
100
AcDbCircle
 10
330.4919572288491
 20
-23.30860841114918
 30
0.0
 40
0.8108108043670654
  0
CIRCLE
  5
51A
330
1F
100
AcDbEntity
  8
0
  6
Continuous
 62
     6
370
    13
100
AcDbCircle
 10
314.8153084144578
 20
-23.30860841114918
 30
0.0
 40
0.8108108043670654
  0
CIRCLE
  5
51B
330
1F
100
AcDbEntity
  8
0
  6
Continuous
 62
     6
370
    13
100
AcDbCircle
 10
286.0428576032136
 20
-47.7641746230438
 30
0.0
 40
0.8108108043670654
  0
CIRCLE
  5
51C
330
1F
100
AcDbEntity
  8
0
  6
Continuous
 62
     6
370
    13
100
AcDbCircle
 10
266.0428412661713
 20
-47.7641746230438
 30
0.0
 40
0.8108108043670654
  0
CIRCLE
  5
51D
330
1F
100
AcDbEntity
  8
0
  6
Continuous
 62
     6
370
    13
100
AcDbCircle
 10
286.0428576032136
 20
-60.31486669496371
 30
0.0
 40
0.8108108043670654
  0
CIRCLE
  5
51E
330
1F
100
AcDbEntity
  8
0
  6
Continuous
 62
     6
370
    13
100
AcDbCircle
 10
186.0428254059661
 20
-60.31486669496371
 30
0.0
 40
0.8108108043670654
  0
LINE
  5
51F
330
1F
100
AcDbEntity
  8
0
  6
Continuous
 62
     3
370
    13
100
AcDbLine
 10
-82.56623898434191
 20
137.7914170320437
 30
0.0
 11
-82.06626208269881
 21
137.7914170320437
 31
0.0
  0
TEXT
  5
521
330
1F
100
AcDbEntity
  8
0
 62
     2
100
AcDbText
 10
281.4733369469614
 20
-276.074125828025
 30
0.0
 40
8.0
  1
Ａ－3
 41
1.089622641509434
  7
dcStyle0
 72
     5
 11
303.4733369469614
 21
-276.074125828025
 31
0.0
100
AcDbText
  0
TEXT
  5
522
330
1F
100
AcDbEntity
  8
0
 62
     2
100
AcDbText
 10
314.2730193034804
 20
-276.2543439819124
 30
0.0
 40
8.0
  1
Ｓ＝1/2
 41
0.8842105263157894
  7
dcStyle0
 72
     5
 11
346.2730193034804
 21
-276.2543439819124
 31
0.0
100
AcDbText
  0
TEXT
  5
523
330
1F
100
AcDbEntity
  8
0
 62
     2
100
AcDbText
 10
354.9029347850592
 20
-276.39046372026
 30
0.0
 40
8.0
  1
No.
 41
0.7819148936170214
  7
dcStyle0
 72
     5
 11
368.9029347850592
 21
-276.39046372026
 31
0.0
100
AcDbText
  0
TEXT
  5
524
330
1F
100
AcDbEntity
  8
0
 62
     2
100
AcDbText
 10
-27.82003019750846
 20
-275.5978304637188
 30
0.0
 40
8.0
  1
（NA88010)
 41
0.75
  7
dcStyle0
 72
     5
 11
20.17996980249154
 21
-275.5978304637188
 31
0.0
100
AcDbText
  0
TEXT
  5
525
330
1F
100
AcDbEntity
  8
0
 62
     2
100
AcDbText
 10
-92.9711329314232
 20
-275.5978304637188
 30
0.0
 40
8.0
  1
内蔵用取付金具
 41
1.323170731707317
  7
dcStyle0
 72
     5
 11
-30.9711329314232
 21
-275.5978304637188
 31
0.0
100
AcDbText
  0
TEXT
  5
526
330
1F
100
AcDbEntity
  8
0
 62
     2
100
AcDbText
 10
-165.3591081004342
 20
-275.0677896238644
 30
0.0
 40
8.0
  1
サッシ加工図
 41
1.325
  7
dcStyle0
 72
     5
 11
-112.3591081004342
 21
-275.0677896238644
 31
0.0
100
AcDbText
  0
TEXT
  5
527
330
1F
100
AcDbEntity
  8
0
 62
     2
100
AcDbText
 10
-212.1175635723703
 20
-275.6954191824916
 30
0.0
 40
8.0
  1
各メーカー
 41
1.327586206896552
  7
dcStyle0
 72
     5
 11
-168.1175635723703
 21
-275.6954191824916
 31
0.0
100
AcDbText
  0
TEXT
  5
528
330
1F
100
AcDbEntity
  8
0
 62
     2
100
AcDbText
 10
-374.3171775556393
 20
-275.4906751028793
 30
0.0
 40
8.0
  1
ヤヌス電工エンジン用
 41
1.319915254237288
  7
dcStyle0
 72
     5
 11
-285.3171775556393
 21
-275.4906751028793
 31
0.0
100
AcDbText
  0
TEXT
  5
529
330
1F
100
AcDbEntity
  8
0
 62
     2
100
AcDbText
 10
370.765212952916
 20
-276.0130623197806
 30
0.0
 40
8.0
  1
3
 41
0.6176470588235294
  7
dcStyle0
 72
     5
 11
374.765212952916
 21
-276.0130623197806
 31
0.0
100
AcDbText
  0
TEXT
  5
52A
330
1F
100
AcDbEntity
  8
0
 62
     2
100
AcDbText
 10
-181.7833221010296
 20
55.19135302421637
 30
0.0
 40
8.0
  1
170
 50
90.0
 41
0.6447368421052632
  7
dcStyle0
 72
     5
 11
-181.7833221010296
 21
69.19135302421637
 31
0.0
100
AcDbText
  0
TEXT
  5
52B
330
1F
100
AcDbEntity
  8
0
 62
     2
100
AcDbText
 10
-202.4023091494746
 20
93.1913543718183
 30
0.0
 40
8.0
  1
89.5
 50
90.0
 41
0.7444029850746268
  7
dcStyle0
 72
     5
 11
-202.4023091494746
 21
112.1913543718183
 31
0.0
100
AcDbText
  0
TEXT
  5
52C
330
1F
100
AcDbEntity
  8
0
 62
     2
100
AcDbText
 10
-218.9074112274466
 20
52.94135799089418
 30
0.0
 40
8.0
  1
83
 50
90.0
 41
0.6385135135135135
  7
dcStyle0
 72
     5
 11
-218.9074112274466
 21
61.94135799089418
 31
0.0
100
AcDbText
  0
TEXT
  5
52D
330
1F
100
AcDbEntity
  8
0
 62
     2
100
AcDbText
 10
-202.4023091494746
 20
8.191371543325658
 30
0.0
 40
8.0
  1
80.5
 50
90.0
 41
0.7444029850746268
  7
dcStyle0
 72
     5
 11
-202.4023091494746
 21
27.19137154332566
 31
0.0
100
AcDbText
  0
TEXT
  5
52E
330
1F
100
AcDbEntity
  8
0
 62
     2
100
AcDbText
 10
-249.283371052552
 20
-46.76419607577554
 30
0.0
 40
8.0
  1
20
 41
0.6385135135135135
  7
dcStyle0
 72
     5
 11
-240.283371052552
 21
-46.76419607577554
 31
0.0
100
AcDbText
  0
TEXT
  5
52F
330
1F
100
AcDbEntity
  8
0
 62
     2
100
AcDbText
 10
-291.5333740159767
 20
-66.48673339792003
 30
0.0
 40
8.0
  1
100
 41
0.6447368421052632
  7
dcStyle0
 72
     5
 11
-277.5333740159767
 21
-66.48673339792003
 31
0.0
100
AcDbText
  0
TEXT
  5
530
330
1F
100
AcDbEntity
  8
0
 62
     2
100
AcDbText
 10
-273.0928347767076
 20
71.03492474163069
 30
0.0
 40
8.0
  1
Ф
 50
14.99981871026379
 41
1.399999999999997
  7
dcStyle0
 72
     5
 11
-265.3654216149932
 21
73.10545265213162
 31
0.0
100
AcDbText
  0
TEXT
  5
531
330
1F
100
AcDbEntity
  8
0
 62
     2
100
AcDbText
 10
-263.6321464413159
 20
73.04485366094013
 30
0.0
 40
8.0
  1
20
 50
15.00017860213594
 41
0.6385135135135142
  7
dcStyle0
 72
     5
 11
-254.9388212658621
 21
75.37425216566672
 31
0.0
100
AcDbText
  0
TEXT
  5
532
330
1F
100
AcDbEntity
  8
0
 62
     2
100
AcDbText
 10
-269.1224277862493
 20
111.7453818848371
 30
0.0
 40
8.0
  1
9
 50
14.99945342215428
 41
0.6562499999999991
  7
dcStyle0
 72
     5
 11
-265.2587146051658
 21
112.7806212070816
 31
0.0
100
AcDbText
  0
TEXT
  5
533
330
1F
100
AcDbEntity
  8
0
 62
     2
100
AcDbText
 10
-316.1515205620417
 20
-154.2091233653555
 30
0.0
 40
14.0
  1
三協立山アルミ
 41
1.268292682926829
  7
dcStyle0
 72
     5
 11
-212.1515205620417
 21
-154.2091233653555
 31
0.0
100
AcDbText
  0
TEXT
  5
534
330
1F
100
AcDbEntity
  8
0
 62
     2
100
AcDbText
 10
69.80712835147278
 20
50.13944843757054
 30
0.0
 40
8.0
  1
170
 50
90.0
 41
0.6447368421052632
  7
dcStyle0
 72
     5
 11
69.80712835147278
 21
64.13944843757054
 31
0.0
100
AcDbText
  0
TEXT
  5
535
330
1F
100
AcDbEntity
  8
0
 62
     2
100
AcDbText
 10
48.38596614840208
 20
97.7203938734092
 30
0.0
 40
8.0
  1
89
 50
90.0
 41
0.65625
  7
dcStyle0
 72
     5
 11
48.38596614840208
 21
106.7203938734092
 31
0.0
100
AcDbText
  0
TEXT
  5
536
330
1F
100
AcDbEntity
  8
0
 62
     2
100
AcDbText
 10
32.70902040622605
 20
45.68768439197447
 30
0.0
 40
8.0
  1
83
 50
90.0
 41
0.6385135135135135
  7
dcStyle0
 72
     5
 11
32.70902040622605
 21
54.68768439197447
 31
0.0
100
AcDbText
  0
TEXT
  5
537
330
1F
100
AcDbEntity
  8
0
 62
     2
100
AcDbText
 10
-10.94567367515264
 20
72.54302096064202
 30
0.0
 40
8.0
  1
20
 50
14.99999590976909
 41
0.6385135135135132
  7
dcStyle0
 72
     5
 11
-2.252341072261899
 21
74.87239174596512
 31
0.0
100
AcDbText
  0
TEXT
  5
538
330
1F
100
AcDbEntity
  8
0
 62
     2
100
AcDbText
 10
-12.56036696890805
 20
109.0065199978199
 30
0.0
 40
8.0
  1
9
 50
14.99984164343947
 41
0.6562499999999992
  7
dcStyle0
 72
     5
 11
-8.696660802425331
 21
110.0417854995552
 31
0.0
100
AcDbText
  0
TEXT
  5
539
330
1F
100
AcDbEntity
  8
0
 62
     2
100
AcDbText
 10
49.03217998406035
 20
8.589551702745666
 30
0.0
 40
8.0
  1
81
 50
90.0
 41
0.7620967741935485
  7
dcStyle0
 72
     5
 11
49.03217998406035
 21
17.58955170274567
 31
0.0
100
AcDbText
  0
TEXT
  5
53A
330
1F
100
AcDbEntity
  8
0
 62
     2
100
AcDbText
 10
4.514440552171436
 20
-45.32637276583409
 30
0.0
 40
8.0
  1
20
 41
0.6385135135135135
  7
dcStyle0
 72
     5
 11
13.51444055217144
 21
-45.32637276583409
 31
0.0
100
AcDbText
  0
TEXT
  5
53B
330
1F
100
AcDbEntity
  8
0
 62
     2
100
AcDbText
 10
-38.51937753118546
 20
-60.16563573911844
 30
0.0
 40
8.0
  1
100
 41
0.6447368421052632
  7
dcStyle0
 72
     5
 11
-24.51937753118546
 21
-60.16563573911844
 31
0.0
100
AcDbText
  0
TEXT
  5
53C
330
1F
100
AcDbEntity
  8
0
 62
     2
100
AcDbText
 10
-40.42525800590374
 20
-154.4450819783451
 30
0.0
 40
14.0
  1
昭和フロント
 41
1.271428571428571
  7
dcStyle0
 72
     5
 11
48.57474199409626
 21
-154.4450819783451
 31
0.0
100
AcDbText
  0
TEXT
  5
53D
330
1F
100
AcDbEntity
  8
0
 62
     2
100
AcDbText
 10
329.4920034255629
 20
55.19135302421637
 30
0.0
 40
8.0
  1
170
 50
90.0
 41
0.6447368421052632
  7
dcStyle0
 72
     5
 11
329.4920034255629
 21
69.19135302421637
 31
0.0
100
AcDbText
  0
TEXT
  5
53E
330
1F
100
AcDbEntity
  8
0
 62
     2
100
AcDbText
 10
313.8153051232075
 20
97.94133288928424
 30
0.0
 40
8.0
  1
89
 50
90.0
 41
0.65625
  7
dcStyle0
 72
     5
 11
313.8153051232075
 21
106.9413328892842
 31
0.0
100
AcDbText
  0
TEXT
  5
53F
330
1F
100
AcDbEntity
  8
0
 62
     2
100
AcDbText
 10
300.2869288318616
 20
53.34530349813576
 30
0.0
 40
8.0
  1
83
 50
90.0
 41
0.6385135135135135
  7
dcStyle0
 72
     5
 11
300.2869288318616
 21
62.34530349813576
 31
0.0
100
AcDbText
  0
TEXT
  5
540
330
1F
100
AcDbEntity
  8
0
 62
     2
100
AcDbText
 10
257.6116263046715
 20
72.69675532122346
 30
0.0
 40
8.0
  1
20
 50
14.99995274117392
 41
0.638513513513514
  7
dcStyle0
 72
     5
 11
266.3049606625872
 21
75.0261195566925
 31
0.0
100
AcDbText
  0
TEXT
  5
541
330
1F
100
AcDbEntity
  8
0
 62
     2
100
AcDbText
 10
256.1747432660486
 20
108.5567981237546
 30
0.0
 40
8.0
  1
9
 50
15.00027573358195
 41
0.65625
  7
dcStyle0
 72
     5
 11
260.0384415889361
 21
109.5920928980659
 31
0.0
100
AcDbText
  0
TEXT
  5
542
330
1F
100
AcDbEntity
  8
0
 62
     2
100
AcDbText
 10
229.5428448554449
 20
-59.31488814769546
 30
0.0
 40
8.0
  1
100
 41
0.6447368421052632
  7
dcStyle0
 72
     5
 11
243.5428448554449
 21
-59.31488814769546
 31
0.0
100
AcDbText
  0
TEXT
  5
543
330
1F
100
AcDbEntity
  8
0
 62
     2
100
AcDbText
 10
271.7928478188696
 20
-46.76419607577554
 30
0.0
 40
8.0
  1
20
 41
0.6385135135135135
  7
dcStyle0
 72
     5
 11
280.7928478188696
 21
-46.76419607577554
 31
0.0
100
AcDbText
  0
TEXT
  5
544
330
1F
100
AcDbEntity
  8
0
 62
     2
100
AcDbText
 10
313.8153051232075
 20
8.041398268018384
 30
0.0
 40
8.0
  1
81
 50
90.0
 41
0.7620967741935485
  7
dcStyle0
 72
     5
 11
313.8153051232075
 21
17.04139826801838
 31
0.0
100
AcDbText
  0
TEXT
  5
545
330
1F
100
AcDbEntity
  8
0
 62
     2
100
AcDbText
 10
239.8346588044806
 20
-156.2380309189102
 30
0.0
 40
14.0
  1
YKK-AP
 41
0.5778688524590164
  7
dcStyle0
 72
     5
 11
286.8346588044806
 21
-156.2380309189102
 31
0.0
100
AcDbText
  0
TEXT
  5
546
330
1F
100
AcDbEntity
  8
0
 62
     2
100
AcDbText
 10
-20.84299431809632
 20
71.03492474163068
 30
0.0
 40
8.0
  1
Ф
 50
14.99979577715667
 41
1.4
  7
dcStyle0
 72
     5
 11
-13.11558032763672
 21
73.10544955917075
 31
0.0
100
AcDbText
  0
TEXT
  5
547
330
1F
100
AcDbEntity
  8
0
 62
     2
100
AcDbText
 10
247.6790949752467
 20
71.03492474163068
 30
0.0
 40
8.0
  1
Ф
 50
14.99984164343958
 41
1.400000000000001
  7
dcStyle0
 72
     5
 11
255.4065073082122
 21
73.1054557451014
 31
0.0
100
AcDbText
  0
VIEWPORT
  5
74
330
1B
100
AcDbEntity
 67
     1
  8
0
100
AcDbViewport
 10
3.557253628890066
 20
-0.1453817201349921
 30
0.0
 40
2410.85045831666
 41
1670.150412612012
 68
     1
 69
     1
 12
3.557253628890066
 22
-0.1453817201349921
 13
0.0
 23
0.0
 14
0.5
 24
0.5
 15
0.0
 25
0.0
 16
0.0
 26
0.0
 36
1.0
 17
0.0
 27
0.0
 37
0.0
 42
50.0
 43
0.0
 44
0.0
 45
1670.150412612012
 50
0.0
 51
0.0
 72
   100
 90
   557152
  1

281
     0
 71
     1
 74
     0
110
0.0
120
0.0
130
0.0
111
1.0
121
0.0
131
0.0
112
0.0
122
1.0
132
0.0
 79
     0
146
0.0
  0
ENDSEC
  0
SECTION
  2
OBJECTS
  0
DICTIONARY
  5
C
330
0
100
AcDbDictionary
281
     1
  3
ACAD_GROUP
350
D
  3
ACAD_LAYOUT
350
1A
  3
ACAD_MATERIAL
350
3B
  3
ACAD_MLEADERSTYLE
350
56C
  3
ACAD_MLINESTYLE
350
17
  3
ACAD_PLOTSETTINGS
350
19
  3
ACAD_PLOTSTYLENAME
350
E
  3
ACAD_SCALELIST
350
548
  3
ACAD_VISUALSTYLE
350
2A
  3
AcDbVariableDictionary
350
56A
  0
DICTIONARY
  5
D
102
{ACAD_REACTORS
330
C
102
}
330
C
100
AcDbDictionary
281
     1
  0
DICTIONARY
  5
1A
102
{ACAD_REACTORS
330
C
102
}
330
C
100
AcDbDictionary
281
     1
  3
Layout1
350
1E
  3
Layout2
350
26
  3
Model
350
22
  0
DICTIONARY
  5
3B
102
{ACAD_REACTORS
330
C
102
}
330
C
100
AcDbDictionary
281
     1
  3
ByBlock
350
3D
  3
ByLayer
350
3C
  3
Global
350
3E
  0
DICTIONARY
  5
56C
102
{ACAD_REACTORS
330
C
102
}
330
C
100
AcDbDictionary
281
     1
  0
DICTIONARY
  5
17
102
{ACAD_REACTORS
330
C
102
}
330
C
100
AcDbDictionary
281
     1
  3
Standard
350
18
  0
DICTIONARY
  5
19
102
{ACAD_REACTORS
330
C
102
}
330
C
100
AcDbDictionary
281
     1
  0
ACDBDICTIONARYWDFLT
  5
E
102
{ACAD_REACTORS
330
C
102
}
330
C
100
AcDbDictionary
281
     1
  3
Normal
350
F
100
AcDbDictionaryWithDefault
340
F
  0
DICTIONARY
  5
548
102
{ACAD_REACTORS
330
C
102
}
330
C
100
AcDbDictionary
281
     1
  3
A0
350
549
  3
A1
350
54A
  3
A2
350
54B
  3
A3
350
54C
  3
A4
350
54D
  3
A5
350
54E
  3
A6
350
54F
  3
A7
350
550
  3
A8
350
551
  3
A9
350
552
  3
B0
350
553
  3
B1
350
554
  3
B2
350
555
  3
B3
350
556
  3
B4
350
557
  3
B5
350
558
  3
B6
350
559
  3
B7
350
55A
  3
B8
350
55B
  3
B9
350
55C
  3
C0
350
55D
  3
C1
350
55E
  3
C2
350
55F
  3
C3
350
560
  3
C4
350
561
  3
C5
350
562
  3
C6
350
563
  3
C7
350
564
  3
C8
350
565
  3
C9
350
566
  3
D0
350
567
  3
D1
350
568
  3
D2
350
569
  0
DICTIONARY
  5
2A
102
{ACAD_REACTORS
330
C
102
}
330
C
100
AcDbDictionary
281
     1
  3
2dWireframe
350
2F
  3
3D Hidden
350
31
  3
3dWireframe
350
30
  3
Basic
350
32
  3
Brighten
350
36
  3
ColorChange
350
3A
  3
Conceptual
350
34
  3
Dim
350
35
  3
Facepattern
350
39
  3
Flat
350
2B
  3
FlatWithEdges
350
2C
  3
Gouraud
350
2D
  3
GouraudWithEdges
350
2E
  3
Linepattern
350
38
  3
Realistic
350
33
  3
Thicken
350
37
  0
DICTIONARY
  5
56A
102
{ACAD_REACTORS
330
C
102
}
330
C
100
AcDbDictionary
281
     1
  3
CANNOSCALE
350
56D
  3
DIMASSOC
350
56E
  3
HIDETEXT
350
56F
  0
LAYOUT
  5
1E
102
{ACAD_REACTORS
330
1A
102
}
330
1A
100
AcDbPlotSettings
  1

  2
none_device
  4

  6

 40
0.0
 41
0.0
 42
0.0
 43
0.0
 44
0.0
 45
0.0
 46
0.0
 47
0.0
 48
0.0
 49
0.0
140
0.0
141
0.0
142
1.0
143
1.0
 70
   688
 72
     0
 73
     0
 74
     5
  7

 75
    16
147
1.0
148
0.0
149
0.0
100
AcDbLayout
  1
Layout1
 70
     0
 71
     1
 10
0.0
 20
0.0
 11
12.0
 21
9.0
 12
0.0
 22
0.0
 32
0.0
 14
1.000000000000000E+20
 24
1.000000000000000E+20
 34
1.000000000000000E+20
 15
-1.000000000000000E+20
 25
-1.000000000000000E+20
 35
-1.000000000000000E+20
146
0.0
 13
0.0
 23
0.0
 33
0.0
 16
1.0
 26
0.0
 36
0.0
 17
0.0
 27
1.0
 37
0.0
 76
     0
330
1B
331
74
  0
LAYOUT
  5
26
102
{ACAD_REACTORS
330
1A
102
}
330
1A
100
AcDbPlotSettings
  1

  2
none_device
  4

  6

 40
0.0
 41
0.0
 42
0.0
 43
0.0
 44
0.0
 45
0.0
 46
0.0
 47
0.0
 48
0.0
 49
0.0
140
0.0
141
0.0
142
1.0
143
1.0
 70
   688
 72
     0
 73
     0
 74
     5
  7

 75
    16
147
1.0
148
0.0
149
0.0
100
AcDbLayout
  1
Layout2
 70
     1
 71
     2
 10
0.0
 20
0.0
 11
0.0
 21
0.0
 12
0.0
 22
0.0
 32
0.0
 14
0.0
 24
0.0
 34
0.0
 15
0.0
 25
0.0
 35
0.0
146
0.0
 13
0.0
 23
0.0
 33
0.0
 16
1.0
 26
0.0
 36
0.0
 17
0.0
 27
1.0
 37
0.0
 76
     0
330
23
  0
LAYOUT
  5
22
102
{ACAD_REACTORS
330
1A
102
}
330
1A
100
AcDbPlotSettings
  1

  2
none_device
  4

  6

 40
0.0
 41
0.0
 42
0.0
 43
0.0
 44
0.0
 45
0.0
 46
0.0
 47
0.0
 48
0.0
 49
0.0
140
0.0
141
0.0
142
1.0
143
1.0
 70
  1712
 72
     0
 73
     0
 74
     0
  7

 75
     0
147
1.0
148
0.0
149
0.0
100
AcDbLayout
  1
Model
 70
     1
 71
     0
 10
-420.0
 20
-297.0
 11
420.0
 21
297.0
 12
0.0
 22
0.0
 32
0.0
 14
-1201.86797552944
 24
-835.2205880261408
 34
0.0
 15
1208.98248278722
 25
834.9298245858708
 35
0.0
146
0.0
 13
0.0
 23
0.0
 33
0.0
 16
1.0
 26
0.0
 36
0.0
 17
0.0
 27
1.0
 37
0.0
 76
     0
330
1F
331
29
  0
MATERIAL
  5
3D
102
{ACAD_REACTORS
330
3B
102
}
102
{ACAD_XDICTIONARY
360
592
102
}
330
3B
100
AcDbMaterial
  1
ByBlock
  0
MATERIAL
  5
3C
102
{ACAD_REACTORS
330
3B
102
}
102
{ACAD_XDICTIONARY
360
590
102
}
330
3B
100
AcDbMaterial
  1
ByLayer
  0
MATERIAL
  5
3E
102
{ACAD_REACTORS
330
3B
102
}
102
{ACAD_XDICTIONARY
360
594
102
}
330
3B
100
AcDbMaterial
  1
Global
  0
MLINESTYLE
  5
18
102
{ACAD_REACTORS
330
17
102
}
330
17
100
AcDbMlineStyle
  2
Standard
 70
     0
  3

 62
   256
 51
90.0
 52
90.0
 71
     2
 49
0.5
 62
   256
  6
BYLAYER
 49
-0.5
 62
   256
  6
BYLAYER
  0
ACDBPLACEHOLDER
  5
F
102
{ACAD_REACTORS
330
E
102
}
330
E
  0
SCALE
  5
549
102
{ACAD_REACTORS
330
548
102
}
330
548
100
AcDbScale
 70
     0
300
1:1
140
1.0
141
1.0
290
     1
  0
SCALE
  5
54A
102
{ACAD_REACTORS
330
548
102
}
330
548
100
AcDbScale
 70
     0
300
1:2
140
1.0
141
2.0
290
     0
  0
SCALE
  5
54B
102
{ACAD_REACTORS
330
548
102
}
330
548
100
AcDbScale
 70
     0
300
1:4
140
1.0
141
4.0
290
     0
  0
SCALE
  5
54C
102
{ACAD_REACTORS
330
548
102
}
330
548
100
AcDbScale
 70
     0
300
1:5
140
1.0
141
5.0
290
     0
  0
SCALE
  5
54D
102
{ACAD_REACTORS
330
548
102
}
330
548
100
AcDbScale
 70
     0
300
1:8
140
1.0
141
8.0
290
     0
  0
SCALE
  5
54E
102
{ACAD_REACTORS
330
548
102
}
330
548
100
AcDbScale
 70
     0
300
1:10
140
1.0
141
10.0
290
     0
  0
SCALE
  5
54F
102
{ACAD_REACTORS
330
548
102
}
330
548
100
AcDbScale
 70
     0
300
1:16
140
1.0
141
16.0
290
     0
  0
SCALE
  5
550
102
{ACAD_REACTORS
330
548
102
}
330
548
100
AcDbScale
 70
     0
300
1:20
140
1.0
141
20.0
290
     0
  0
SCALE
  5
551
102
{ACAD_REACTORS
330
548
102
}
330
548
100
AcDbScale
 70
     0
300
1:30
140
1.0
141
30.0
290
     0
  0
SCALE
  5
552
102
{ACAD_REACTORS
330
548
102
}
330
548
100
AcDbScale
 70
     0
300
1:40
140
1.0
141
40.0
290
     0
  0
SCALE
  5
553
102
{ACAD_REACTORS
330
548
102
}
330
548
100
AcDbScale
 70
     0
300
1:50
140
1.0
141
50.0
290
     0
  0
SCALE
  5
554
102
{ACAD_REACTORS
330
548
102
}
330
548
100
AcDbScale
 70
     0
300
1:100
140
1.0
141
100.0
290
     0
  0
SCALE
  5
555
102
{ACAD_REACTORS
330
548
102
}
330
548
100
AcDbScale
 70
     0
300
2:1
140
2.0
141
1.0
290
     0
  0
SCALE
  5
556
102
{ACAD_REACTORS
330
548
102
}
330
548
100
AcDbScale
 70
     0
300
4:1
140
4.0
141
1.0
290
     0
  0
SCALE
  5
557
102
{ACAD_REACTORS
330
548
102
}
330
548
100
AcDbScale
 70
     0
300
8:1
140
8.0
141
1.0
290
     0
  0
SCALE
  5
558
102
{ACAD_REACTORS
330
548
102
}
330
548
100
AcDbScale
 70
     0
300
10:1
140
10.0
141
1.0
290
     0
  0
SCALE
  5
559
102
{ACAD_REACTORS
330
548
102
}
330
548
100
AcDbScale
 70
     0
300
100:1
140
100.0
141
1.0
290
     0
  0
SCALE
  5
55A
102
{ACAD_REACTORS
330
548
102
}
330
548
100
AcDbScale
 70
     0
300
1/128" = 1'-0"
140
0.0078125
141
12.0
290
     0
  0
SCALE
  5
55B
102
{ACAD_REACTORS
330
548
102
}
330
548
100
AcDbScale
 70
     0
300
1/64" = 1'-0"
140
0.015625
141
12.0
290
     0
  0
SCALE
  5
55C
102
{ACAD_REACTORS
330
548
102
}
330
548
100
AcDbScale
 70
     0
300
1/32" = 1'-0"
140
0.03125
141
12.0
290
     0
  0
SCALE
  5
55D
102
{ACAD_REACTORS
330
548
102
}
330
548
100
AcDbScale
 70
     0
300
1/16" = 1'-0"
140
0.0625
141
12.0
290
     0
  0
SCALE
  5
55E
102
{ACAD_REACTORS
330
548
102
}
330
548
100
AcDbScale
 70
     0
300
3/32" = 1'-0"
140
0.09375
141
12.0
290
     0
  0
SCALE
  5
55F
102
{ACAD_REACTORS
330
548
102
}
330
548
100
AcDbScale
 70
     0
300
1/8" = 1'-0"
140
0.125
141
12.0
290
     0
  0
SCALE
  5
560
102
{ACAD_REACTORS
330
548
102
}
330
548
100
AcDbScale
 70
     0
300
3/16" = 1'-0"
140
0.1875
141
12.0
290
     0
  0
SCALE
  5
561
102
{ACAD_REACTORS
330
548
102
}
330
548
100
AcDbScale
 70
     0
300
1/4" = 1'-0"
140
0.25
141
12.0
290
     0
  0
SCALE
  5
562
102
{ACAD_REACTORS
330
548
102
}
330
548
100
AcDbScale
 70
     0
300
3/8" = 1'-0"
140
0.375
141
12.0
290
     0
  0
SCALE
  5
563
102
{ACAD_REACTORS
330
548
102
}
330
548
100
AcDbScale
 70
     0
300
1/2" = 1'-0"
140
0.5
141
12.0
290
     0
  0
SCALE
  5
564
102
{ACAD_REACTORS
330
548
102
}
330
548
100
AcDbScale
 70
     0
300
3/4" = 1'-0"
140
0.75
141
12.0
290
     0
  0
SCALE
  5
565
102
{ACAD_REACTORS
330
548
102
}
330
548
100
AcDbScale
 70
     0
300
1" = 1'-0"
140
1.0
141
12.0
290
     0
  0
SCALE
  5
566
102
{ACAD_REACTORS
330
548
102
}
330
548
100
AcDbScale
 70
     0
300
1-1/2" = 1'-0"
140
1.5
141
12.0
290
     0
  0
SCALE
  5
567
102
{ACAD_REACTORS
330
548
102
}
330
548
100
AcDbScale
 70
     0
300
3" = 1'-0"
140
3.0
141
12.0
290
     0
  0
SCALE
  5
568
102
{ACAD_REACTORS
330
548
102
}
330
548
100
AcDbScale
 70
     0
300
6" = 1'-0"
140
6.0
141
12.0
290
     0
  0
SCALE
  5
569
102
{ACAD_REACTORS
330
548
102
}
330
548
100
AcDbScale
 70
     0
300
1'-0" = 1'-0"
140
12.0
141
12.0
290
     0
  0
VISUALSTYLE
  5
2F
102
{ACAD_REACTORS
330
2A
102
}
102
{ACAD_XDICTIONARY
360
578
102
}
330
2A
100
AcDbVisualStyle
  2
2dWireframe
 70
     4
 71
     0
 72
     2
 73
     0
 90
        0
 40
-0.6
 41
-30.0
 62
     5
 63
     7
 74
     1
 91
        4
 64
     7
 65
   257
 75
     1
175
     1
 42
1.0
 92
        0
 66
   257
 43
1.0
 76
     1
 77
     6
 78
     2
 67
     7
 79
     5
170
     0
171
     0
290
     0
174
     0
 93
        1
 44
0.0
173
     0
291
     0
 45
0.0
1001
ACAD
1000
AcDbSavedByObjectVersion
1070
     0
  0
VISUALSTYLE
  5
31
102
{ACAD_REACTORS
330
2A
102
}
102
{ACAD_XDICTIONARY
360
57C
102
}
330
2A
100
AcDbVisualStyle
  2
3D Hidden
 70
     6
 71
     1
 72
     2
 73
     2
 90
        0
 40
-0.6
 41
-30.0
 62
     5
 63
     7
 74
     2
 91
        2
 64
     7
 65
   257
 75
     2
175
     1
 42
40.0
 92
        0
 66
   257
 43
1.0
 76
     1
 77
     6
 78
     2
 67
     7
 79
     3
170
     0
171
     0
290
     0
174
     0
 93
        1
 44
0.0
173
     0
291
     0
 45
0.0
1001
ACAD
1000
AcDbSavedByObjectVersion
1070
     0
  0
VISUALSTYLE
  5
30
102
{ACAD_REACTORS
330
2A
102
}
102
{ACAD_XDICTIONARY
360
57A
102
}
330
2A
100
AcDbVisualStyle
  2
3dWireframe
 70
     5
 71
     0
 72
     2
 73
     0
 90
        0
 40
-0.6
 41
-30.0
 62
     5
 63
     7
 74
     1
 91
        4
 64
     7
 65
   257
 75
     1
175
     1
 42
1.0
 92
        0
 66
   257
 43
1.0
 76
     1
 77
     6
 78
     2
 67
     7
 79
     5
170
     0
171
     0
290
     0
174
     0
 93
        1
 44
0.0
173
     0
291
     0
 45
0.0
1001
ACAD
1000
AcDbSavedByObjectVersion
1070
     0
  0
VISUALSTYLE
  5
32
102
{ACAD_REACTORS
330
2A
102
}
102
{ACAD_XDICTIONARY
360
57E
102
}
330
2A
100
AcDbVisualStyle
  2
Basic
 70
     7
 71
     1
 72
     0
 73
     1
 90
        0
 40
-0.6
 41
-30.0
 62
     5
 63
     7
 74
     0
 91
        4
 64
     7
 65
   257
 75
     1
175
     1
 42
1.0
 92
        8
 66
     7
 43
1.0
 76
     1
 77
     6
 78
     2
 67
     7
 79
     5
170
     0
171
     0
290
     0
174
     0
 93
        1
 44
0.0
173
     0
291
     1
 45
0.0
1001
ACAD
1000
AcDbSavedByObjectVersion
1070
     0
  0
VISUALSTYLE
  5
36
102
{ACAD_REACTORS
330
2A
102
}
102
{ACAD_XDICTIONARY
360
586
102
}
330
2A
100
AcDbVisualStyle
  2
Brighten
 70
    12
 71
     2
 72
     2
 73
     0
 90
        0
 40
-0.6
 41
-30.0
 62
     5
 63
     7
 74
     1
 91
        4
 64
     7
 65
   257
 75
     1
175
     1
 42
1.0
 92
        8
 66
     7
 43
1.0
 76
     1
 77
     6
 78
     2
 67
     7
 79
     5
170
     0
171
     0
290
     0
174
     0
 93
        1
 44
50.0
173
     0
291
     1
 45
0.0
1001
ACAD
1000
AcDbSavedByObjectVersion
1070
     0
  0
VISUALSTYLE
  5
3A
102
{ACAD_REACTORS
330
2A
102
}
102
{ACAD_XDICTIONARY
360
58E
102
}
330
2A
100
AcDbVisualStyle
  2
ColorChange
 70
    16
 71
     2
 72
     2
 73
     3
 90
        0
 40
-0.6
 41
-30.0
 62
     5
 63
     8
 74
     1
 91
        4
 64
     7
 65
   257
 75
     1
175
     1
 42
1.0
 92
        8
 66
     8
 43
1.0
 76
     1
 77
     6
 78
     2
 67
     7
 79
     5
170
     0
171
     0
290
     0
174
     0
 93
        1
 44
0.0
173
     0
291
     1
 45
0.0
1001
ACAD
1000
AcDbSavedByObjectVersion
1070
     0
  0
VISUALSTYLE
  5
34
102
{ACAD_REACTORS
330
2A
102
}
102
{ACAD_XDICTIONARY
360
582
102
}
330
2A
100
AcDbVisualStyle
  2
Conceptual
 70
     9
 71
     3
 72
     2
 73
     0
 90
        0
 40
-0.6
 41
-30.0
 62
     5
 63
     7
 74
     2
 91
        2
 64
     7
 65
   257
 75
     1
175
     1
 42
40.0
 92
        8
 66
     7
 43
1.0
 76
     1
 77
     6
 78
     2
 67
     7
 79
     3
170
     0
171
     0
290
     0
174
     0
 93
        1
 44
0.0
173
     0
291
     0
 45
0.0
1001
ACAD
1000
AcDbSavedByObjectVersion
1070
     0
  0
VISUALSTYLE
  5
35
102
{ACAD_REACTORS
330
2A
102
}
102
{ACAD_XDICTIONARY
360
584
102
}
330
2A
100
AcDbVisualStyle
  2
Dim
 70
    11
 71
     2
 72
     2
 73
     0
 90
        0
 40
-0.6
 41
-30.0
 62
     5
 63
     7
 74
     1
 91
        4
 64
     7
 65
   257
 75
     1
175
     1
 42
1.0
 92
        8
 66
     7
 43
1.0
 76
     1
 77
     6
 78
     2
 67
     7
 79
     5
170
     0
171
     0
290
     0
174
     0
 93
        1
 44
-50.0
173
     0
291
     1
 45
0.0
1001
ACAD
1000
AcDbSavedByObjectVersion
1070
     0
  0
VISUALSTYLE
  5
39
102
{ACAD_REACTORS
330
2A
102
}
102
{ACAD_XDICTIONARY
360
58C
102
}
330
2A
100
AcDbVisualStyle
  2
Facepattern
 70
    15
 71
     2
 72
     2
 73
     0
 90
        0
 40
-0.6
 41
-30.0
 62
     5
 63
     7
 74
     1
 91
        4
 64
     7
 65
   257
 75
     1
175
     1
 42
1.0
 92
        8
 66
     7
 43
1.0
 76
     1
 77
     6
 78
     2
 67
     7
 79
     5
170
     0
171
     0
290
     0
174
     0
 93
        1
 44
0.0
173
     0
291
     1
 45
0.0
1001
ACAD
1000
AcDbSavedByObjectVersion
1070
     0
  0
VISUALSTYLE
  5
2B
102
{ACAD_REACTORS
330
2A
102
}
102
{ACAD_XDICTIONARY
360
570
102
}
330
2A
100
AcDbVisualStyle
  2
Flat
 70
     0
 71
     2
 72
     1
 73
     1
 90
        2
 40
-0.6
 41
30.0
 62
     5
 63
     7
 74
     0
 91
        4
 64
     7
 65
   257
 75
     1
175
     1
 42
1.0
 92
        8
 66
     7
 43
1.0
 76
     1
 77
     6
 78
     2
 67
     7
 79
     5
170
     0
171
     0
290
     0
174
     0
 93
       13
 44
0.0
173
     0
291
     1
 45
0.0
1001
ACAD
1000
AcDbSavedByObjectVersion
1070
     0
  0
VISUALSTYLE
  5
2C
102
{ACAD_REACTORS
330
2A
102
}
102
{ACAD_XDICTIONARY
360
572
102
}
330
2A
100
AcDbVisualStyle
  2
FlatWithEdges
 70
     1
 71
     2
 72
     1
 73
     1
 90
        2
 40
-0.6
 41
30.0
 62
     5
 63
     7
 74
     1
 91
        4
 64
     7
 65
   257
 75
     1
175
     1
 42
1.0
 92
        0
 66
   257
 43
1.0
 76
     1
 77
     6
 78
     2
 67
     7
 79
     5
170
     0
171
     0
290
     0
174
     0
 93
       13
 44
0.0
173
     0
291
     1
 45
0.0
1001
ACAD
1000
AcDbSavedByObjectVersion
1070
     0
  0
VISUALSTYLE
  5
2D
102
{ACAD_REACTORS
330
2A
102
}
102
{ACAD_XDICTIONARY
360
574
102
}
330
2A
100
AcDbVisualStyle
  2
Gouraud
 70
     2
 71
     2
 72
     2
 73
     1
 90
        2
 40
-0.6
 41
30.0
 62
     5
 63
     7
 74
     0
 91
        4
 64
     7
 65
   257
 75
     1
175
     1
 42
1.0
 92
        0
 66
     7
 43
1.0
 76
     1
 77
     6
 78
     2
 67
     7
 79
     5
170
     0
171
     0
290
     0
174
     0
 93
       13
 44
0.0
173
     0
291
     1
 45
0.0
1001
ACAD
1000
AcDbSavedByObjectVersion
1070
     0
  0
VISUALSTYLE
  5
2E
102
{ACAD_REACTORS
330
2A
102
}
102
{ACAD_XDICTIONARY
360
576
102
}
330
2A
100
AcDbVisualStyle
  2
GouraudWithEdges
 70
     3
 71
     2
 72
     2
 73
     1
 90
        2
 40
-0.6
 41
30.0
 62
     5
 63
     7
 74
     1
 91
        4
 64
     7
 65
   257
 75
     1
175
     1
 42
1.0
 92
        0
 66
   257
 43
1.0
 76
     1
 77
     6
 78
     2
 67
     7
 79
     5
170
     0
171
     0
290
     0
174
     0
 93
       13
 44
0.0
173
     0
291
     1
 45
0.0
1001
ACAD
1000
AcDbSavedByObjectVersion
1070
     0
  0
VISUALSTYLE
  5
38
102
{ACAD_REACTORS
330
2A
102
}
102
{ACAD_XDICTIONARY
360
58A
102
}
330
2A
100
AcDbVisualStyle
  2
Linepattern
 70
    14
 71
     2
 72
     2
 73
     0
 90
        0
 40
-0.6
 41
-30.0
 62
     5
 63
     7
 74
     1
 91
        4
 64
     7
 65
   257
 75
     7
175
     7
 42
1.0
 92
        8
 66
     7
 43
1.0
 76
     1
 77
     6
 78
     2
 67
     7
 79
     5
170
     0
171
     0
290
     0
174
     0
 93
        1
 44
0.0
173
     0
291
     1
 45
0.0
1001
ACAD
1000
AcDbSavedByObjectVersion
1070
     0
  0
VISUALSTYLE
  5
33
102
{ACAD_REACTORS
330
2A
102
}
102
{ACAD_XDICTIONARY
360
580
102
}
330
2A
100
AcDbVisualStyle
  2
Realistic
 70
     8
 71
     2
 72
     2
 73
     0
 90
        0
 40
-0.6
 41
-30.0
 62
     5
 63
     7
 74
     1
 91
        0
 64
     7
 65
   257
 75
     1
175
     1
 42
1.0
 92
        8
 66
     8
 43
1.0
 76
     1
 77
     6
 78
     2
 67
     7
 79
     5
170
     0
171
     0
290
     0
174
     0
 93
       13
 44
0.0
173
     0
291
     0
 45
0.0
1001
ACAD
1000
AcDbSavedByObjectVersion
1070
     0
  0
VISUALSTYLE
  5
37
102
{ACAD_REACTORS
330
2A
102
}
102
{ACAD_XDICTIONARY
360
588
102
}
330
2A
100
AcDbVisualStyle
  2
Thicken
 70
    13
 71
     2
 72
     2
 73
     0
 90
        0
 40
-0.6
 41
-30.0
 62
     5
 63
     7
 74
     1
 91
        4
 64
     7
 65
   257
 75
     1
175
     1
 42
1.0
 92
       12
 66
     7
 43
1.0
 76
     1
 77
     6
 78
     2
 67
     7
 79
     5
170
     0
171
     0
290
     0
174
     0
 93
        1
 44
0.0
173
     0
291
     1
 45
0.0
1001
ACAD
1000
AcDbSavedByObjectVersion
1070
     0
  0
DICTIONARYVAR
  5
56D
102
{ACAD_REACTORS
330
56A
102
}
330
56A
100
DictionaryVariables
280
     0
  1
1:1
  0
DICTIONARYVAR
  5
56E
102
{ACAD_REACTORS
330
56A
102
}
330
56A
100
DictionaryVariables
280
     0
  1
2
  0
DICTIONARYVAR
  5
56F
102
{ACAD_REACTORS
330
56A
102
}
330
56A
100
DictionaryVariables
280
     0
  1
1
  0
DICTIONARY
  5
592
330
3D
100
AcDbDictionary
280
     1
281
     1
  3
ACAD_XREC_ROUNDTRIP
360
593
  0
DICTIONARY
  5
590
330
3C
100
AcDbDictionary
280
     1
281
     1
  3
ACAD_XREC_ROUNDTRIP
360
591
  0
DICTIONARY
  5
594
330
3E
100
AcDbDictionary
280
     1
281
     1
  3
ACAD_XREC_ROUNDTRIP
360
595
  0
DICTIONARY
  5
578
330
2F
100
AcDbDictionary
280
     1
281
     1
  3
ACAD_XREC_ROUNDTRIP
360
579
  0
DICTIONARY
  5
57C
330
31
100
AcDbDictionary
280
     1
281
     1
  3
ACAD_XREC_ROUNDTRIP
360
57D
  0
DICTIONARY
  5
57A
330
30
100
AcDbDictionary
280
     1
281
     1
  3
ACAD_XREC_ROUNDTRIP
360
57B
  0
DICTIONARY
  5
57E
330
32
100
AcDbDictionary
280
     1
281
     1
  3
ACAD_XREC_ROUNDTRIP
360
57F
  0
DICTIONARY
  5
586
330
36
100
AcDbDictionary
280
     1
281
     1
  3
ACAD_XREC_ROUNDTRIP
360
587
  0
DICTIONARY
  5
58E
330
3A
100
AcDbDictionary
280
     1
281
     1
  3
ACAD_XREC_ROUNDTRIP
360
58F
  0
DICTIONARY
  5
582
330
34
100
AcDbDictionary
280
     1
281
     1
  3
ACAD_XREC_ROUNDTRIP
360
583
  0
DICTIONARY
  5
584
330
35
100
AcDbDictionary
280
     1
281
     1
  3
ACAD_XREC_ROUNDTRIP
360
585
  0
DICTIONARY
  5
58C
330
39
100
AcDbDictionary
280
     1
281
     1
  3
ACAD_XREC_ROUNDTRIP
360
58D
  0
DICTIONARY
  5
570
330
2B
100
AcDbDictionary
280
     1
281
     1
  3
ACAD_XREC_ROUNDTRIP
360
571
  0
DICTIONARY
  5
572
330
2C
100
AcDbDictionary
280
     1
281
     1
  3
ACAD_XREC_ROUNDTRIP
360
573
  0
DICTIONARY
  5
574
330
2D
100
AcDbDictionary
280
     1
281
     1
  3
ACAD_XREC_ROUNDTRIP
360
575
  0
DICTIONARY
  5
576
330
2E
100
AcDbDictionary
280
     1
281
     1
  3
ACAD_XREC_ROUNDTRIP
360
577
  0
DICTIONARY
  5
58A
330
38
100
AcDbDictionary
280
     1
281
     1
  3
ACAD_XREC_ROUNDTRIP
360
58B
  0
DICTIONARY
  5
580
330
33
100
AcDbDictionary
280
     1
281
     1
  3
ACAD_XREC_ROUNDTRIP
360
581
  0
DICTIONARY
  5
588
330
37
100
AcDbDictionary
280
     1
281
     1
  3
ACAD_XREC_ROUNDTRIP
360
589
  0
XRECORD
  5
593
102
{ACAD_REACTORS
330
592
102
}
330
592
100
AcDbXrecord
280
     1
102
MATERIAL
148
0.0
149
0.0
149
0.0
 93
        0
 94
      127
282
     0
 72
     1
 77
     1
171
     1
175
     1
179
     1
273
     0
  0
XRECORD
  5
591
102
{ACAD_REACTORS
330
590
102
}
330
590
100
AcDbXrecord
280
     1
102
MATERIAL
148
0.0
149
0.0
149
0.0
 93
        0
 94
      127
282
     0
 72
     1
 77
     1
171
     1
175
     1
179
     1
273
     0
  0
XRECORD
  5
595
102
{ACAD_REACTORS
330
594
102
}
330
594
100
AcDbXrecord
280
     1
102
MATERIAL
148
0.0
149
0.0
149
0.0
 93
        0
 94
      127
282
     0
 72
     1
 77
     1
171
     1
175
     1
179
     1
273
     0
  0
XRECORD
  5
579
102
{ACAD_REACTORS
330
578
102
}
330
578
100
AcDbXrecord
280
     1
102
RTVSPropertyOp0
 70
     1
102
RTVSPropertyOp1
 70
     1
102
RTVSPropertyOp2
 70
     1
102
RTVSPropertyOp3
 70
     1
102
RTVSPropertyOp4
 70
     1
102
RTVSPropertyOp5
 70
     1
102
RTVSPropertyOp6
 70
     1
102
RTVSPropertyOp7
 70
     1
102
RTVSPropertyOp8
 70
     1
102
RTVSPropertyOp9
 70
     1
102
RTVSPropertyOp10
 70
     1
102
RTVSPropertyOp11
 70
     1
102
RTVSPropertyOp12
 70
     1
102
RTVSPropertyOp13
 70
     1
102
RTVSPropertyOp14
 70
     1
102
RTVSPropertyOp15
 70
     1
102
RTVSPropertyOp16
 70
     1
102
RTVSPropertyOp17
 70
     1
102
RTVSPropertyOp18
 70
     1
102
RTVSPropertyOp19
 70
     1
102
RTVSPropertyOp20
 70
     1
102
RTVSPropertyOp21
 70
     1
102
RTVSPropertyOp22
 70
     1
102
RTVSPropertyOp23
 70
     1
102
RTVSPropertyOp24
 70
     1
102
RTVSPropertyOp25
 70
     1
102
RTVSPropertyOp26
 70
     1
102
RTVSPropertyOp27
 70
     1
102
RTVSPropertyOp28
 70
     1
102
RTVSPropertyOp29
 70
     1
102
RTVSPropertyOp30
 70
     1
102
RTVSPropertyOp31
 70
     1
102
RTVSPropertyOp32
 70
     1
  0
XRECORD
  5
57D
102
{ACAD_REACTORS
330
57C
102
}
330
57C
100
AcDbXrecord
280
     1
102
RTVSPropertyOp0
 70
     1
102
RTVSPropertyOp1
 70
     1
102
RTVSPropertyOp2
 70
     1
102
RTVSPropertyOp3
 70
     1
102
RTVSPropertyOp4
 70
     1
102
RTVSPropertyOp5
 70
     1
102
RTVSPropertyOp6
 70
     1
102
RTVSPropertyOp7
 70
     1
102
RTVSPropertyOp8
 70
     1
102
RTVSPropertyOp9
 70
     1
102
RTVSPropertyOp10
 70
     1
102
RTVSPropertyOp11
 70
     1
102
RTVSPropertyOp12
 70
     1
102
RTVSPropertyOp13
 70
     1
102
RTVSPropertyOp14
 70
     1
102
RTVSPropertyOp15
 70
     1
102
RTVSPropertyOp16
 70
     1
102
RTVSPropertyOp17
 70
     1
102
RTVSPropertyOp18
 70
     1
102
RTVSPropertyOp19
 70
     1
102
RTVSPropertyOp20
 70
     1
102
RTVSPropertyOp21
 70
     1
102
RTVSPropertyOp22
 70
     1
102
RTVSPropertyOp23
 70
     1
102
RTVSPropertyOp24
 70
     1
102
RTVSPropertyOp25
 70
     1
102
RTVSPropertyOp26
 70
     1
102
RTVSPropertyOp27
 70
     1
102
RTVSPropertyOp28
 70
     1
102
RTVSPropertyOp29
 70
     1
102
RTVSPropertyOp30
 70
     1
102
RTVSPropertyOp31
 70
     1
102
RTVSPropertyOp32
 70
     1
  0
XRECORD
  5
57B
102
{ACAD_REACTORS
330
57A
102
}
330
57A
100
AcDbXrecord
280
     1
102
RTVSPropertyOp0
 70
     1
102
RTVSPropertyOp1
 70
     1
102
RTVSPropertyOp2
 70
     1
102
RTVSPropertyOp3
 70
     1
102
RTVSPropertyOp4
 70
     1
102
RTVSPropertyOp5
 70
     1
102
RTVSPropertyOp6
 70
     1
102
RTVSPropertyOp7
 70
     1
102
RTVSPropertyOp8
 70
     1
102
RTVSPropertyOp9
 70
     1
102
RTVSPropertyOp10
 70
     1
102
RTVSPropertyOp11
 70
     1
102
RTVSPropertyOp12
 70
     1
102
RTVSPropertyOp13
 70
     1
102
RTVSPropertyOp14
 70
     1
102
RTVSPropertyOp15
 70
     1
102
RTVSPropertyOp16
 70
     1
102
RTVSPropertyOp17
 70
     1
102
RTVSPropertyOp18
 70
     1
102
RTVSPropertyOp19
 70
     1
102
RTVSPropertyOp20
 70
     1
102
RTVSPropertyOp21
 70
     1
102
RTVSPropertyOp22
 70
     1
102
RTVSPropertyOp23
 70
     1
102
RTVSPropertyOp24
 70
     1
102
RTVSPropertyOp25
 70
     1
102
RTVSPropertyOp26
 70
     1
102
RTVSPropertyOp27
 70
     1
102
RTVSPropertyOp28
 70
     1
102
RTVSPropertyOp29
 70
     1
102
RTVSPropertyOp30
 70
     1
102
RTVSPropertyOp31
 70
     1
102
RTVSPropertyOp32
 70
     1
  0
XRECORD
  5
57F
102
{ACAD_REACTORS
330
57E
102
}
330
57E
100
AcDbXrecord
280
     1
102
RTVSPropertyOp0
 70
     1
102
RTVSPropertyOp1
 70
     1
102
RTVSPropertyOp2
 70
     1
102
RTVSPropertyOp3
 70
     1
102
RTVSPropertyOp4
 70
     1
102
RTVSPropertyOp5
 70
     1
102
RTVSPropertyOp6
 70
     1
102
RTVSPropertyOp7
 70
     1
102
RTVSPropertyOp8
 70
     1
102
RTVSPropertyOp9
 70
     1
102
RTVSPropertyOp10
 70
     1
102
RTVSPropertyOp11
 70
     1
102
RTVSPropertyOp12
 70
     1
102
RTVSPropertyOp13
 70
     1
102
RTVSPropertyOp14
 70
     1
102
RTVSPropertyOp15
 70
     1
102
RTVSPropertyOp16
 70
     1
102
RTVSPropertyOp17
 70
     1
102
RTVSPropertyOp18
 70
     1
102
RTVSPropertyOp19
 70
     1
102
RTVSPropertyOp20
 70
     1
102
RTVSPropertyOp21
 70
     1
102
RTVSPropertyOp22
 70
     1
102
RTVSPropertyOp23
 70
     1
102
RTVSPropertyOp24
 70
     1
102
RTVSPropertyOp25
 70
     1
102
RTVSPropertyOp26
 70
     1
102
RTVSPropertyOp27
 70
     1
102
RTVSPropertyOp28
 70
     1
102
RTVSPropertyOp29
 70
     1
102
RTVSPropertyOp30
 70
     1
102
RTVSPropertyOp31
 70
     1
102
RTVSPropertyOp32
 70
     1
  0
XRECORD
  5
587
102
{ACAD_REACTORS
330
586
102
}
330
586
100
AcDbXrecord
280
     1
102
RTVSPropertyOp0
 70
     1
102
RTVSPropertyOp1
 70
     1
102
RTVSPropertyOp2
 70
     1
102
RTVSPropertyOp3
 70
     1
102
RTVSPropertyOp4
 70
     1
102
RTVSPropertyOp5
 70
     1
102
RTVSPropertyOp6
 70
     1
102
RTVSPropertyOp7
 70
     1
102
RTVSPropertyOp8
 70
     1
102
RTVSPropertyOp9
 70
     1
102
RTVSPropertyOp10
 70
     1
102
RTVSPropertyOp11
 70
     1
102
RTVSPropertyOp12
 70
     1
102
RTVSPropertyOp13
 70
     1
102
RTVSPropertyOp14
 70
     1
102
RTVSPropertyOp15
 70
     1
102
RTVSPropertyOp16
 70
     1
102
RTVSPropertyOp17
 70
     1
102
RTVSPropertyOp18
 70
     1
102
RTVSPropertyOp19
 70
     1
102
RTVSPropertyOp20
 70
     1
102
RTVSPropertyOp21
 70
     1
102
RTVSPropertyOp22
 70
     1
102
RTVSPropertyOp23
 70
     1
102
RTVSPropertyOp24
 70
     1
102
RTVSPropertyOp25
 70
     1
102
RTVSPropertyOp26
 70
     1
102
RTVSPropertyOp27
 70
     1
102
RTVSPropertyOp28
 70
     1
102
RTVSPropertyOp29
 70
     1
102
RTVSPropertyOp30
 70
     1
102
RTVSPropertyOp31
 70
     1
102
RTVSPropertyOp32
 70
     1
  0
XRECORD
  5
58F
102
{ACAD_REACTORS
330
58E
102
}
330
58E
100
AcDbXrecord
280
     1
102
RTVSPropertyOp0
 70
     1
102
RTVSPropertyOp1
 70
     1
102
RTVSPropertyOp2
 70
     1
102
RTVSPropertyOp3
 70
     1
102
RTVSPropertyOp4
 70
     1
102
RTVSPropertyOp5
 70
     1
102
RTVSPropertyOp6
 70
     1
102
RTVSPropertyOp7
 70
     1
102
RTVSPropertyOp8
 70
     1
102
RTVSPropertyOp9
 70
     1
102
RTVSPropertyOp10
 70
     1
102
RTVSPropertyOp11
 70
     1
102
RTVSPropertyOp12
 70
     1
102
RTVSPropertyOp13
 70
     1
102
RTVSPropertyOp14
 70
     1
102
RTVSPropertyOp15
 70
     1
102
RTVSPropertyOp16
 70
     1
102
RTVSPropertyOp17
 70
     1
102
RTVSPropertyOp18
 70
     1
102
RTVSPropertyOp19
 70
     1
102
RTVSPropertyOp20
 70
     1
102
RTVSPropertyOp21
 70
     1
102
RTVSPropertyOp22
 70
     1
102
RTVSPropertyOp23
 70
     1
102
RTVSPropertyOp24
 70
     1
102
RTVSPropertyOp25
 70
     1
102
RTVSPropertyOp26
 70
     1
102
RTVSPropertyOp27
 70
     1
102
RTVSPropertyOp28
 70
     1
102
RTVSPropertyOp29
 70
     1
102
RTVSPropertyOp30
 70
     1
102
RTVSPropertyOp31
 70
     1
102
RTVSPropertyOp32
 70
     1
  0
XRECORD
  5
583
102
{ACAD_REACTORS
330
582
102
}
330
582
100
AcDbXrecord
280
     1
102
RTVSPropertyOp0
 70
     1
102
RTVSPropertyOp1
 70
     1
102
RTVSPropertyOp2
 70
     1
102
RTVSPropertyOp3
 70
     1
102
RTVSPropertyOp4
 70
     1
102
RTVSPropertyOp5
 70
     1
102
RTVSPropertyOp6
 70
     1
102
RTVSPropertyOp7
 70
     1
102
RTVSPropertyOp8
 70
     1
102
RTVSPropertyOp9
 70
     1
102
RTVSPropertyOp10
 70
     1
102
RTVSPropertyOp11
 70
     1
102
RTVSPropertyOp12
 70
     1
102
RTVSPropertyOp13
 70
     1
102
RTVSPropertyOp14
 70
     1
102
RTVSPropertyOp15
 70
     1
102
RTVSPropertyOp16
 70
     1
102
RTVSPropertyOp17
 70
     1
102
RTVSPropertyOp18
 70
     1
102
RTVSPropertyOp19
 70
     1
102
RTVSPropertyOp20
 70
     1
102
RTVSPropertyOp21
 70
     1
102
RTVSPropertyOp22
 70
     1
102
RTVSPropertyOp23
 70
     1
102
RTVSPropertyOp24
 70
     1
102
RTVSPropertyOp25
 70
     1
102
RTVSPropertyOp26
 70
     1
102
RTVSPropertyOp27
 70
     1
102
RTVSPropertyOp28
 70
     1
102
RTVSPropertyOp29
 70
     1
102
RTVSPropertyOp30
 70
     1
102
RTVSPropertyOp31
 70
     1
102
RTVSPropertyOp32
 70
     1
  0
XRECORD
  5
585
102
{ACAD_REACTORS
330
584
102
}
330
584
100
AcDbXrecord
280
     1
102
RTVSPropertyOp0
 70
     1
102
RTVSPropertyOp1
 70
     1
102
RTVSPropertyOp2
 70
     1
102
RTVSPropertyOp3
 70
     1
102
RTVSPropertyOp4
 70
     1
102
RTVSPropertyOp5
 70
     1
102
RTVSPropertyOp6
 70
     1
102
RTVSPropertyOp7
 70
     1
102
RTVSPropertyOp8
 70
     1
102
RTVSPropertyOp9
 70
     1
102
RTVSPropertyOp10
 70
     1
102
RTVSPropertyOp11
 70
     1
102
RTVSPropertyOp12
 70
     1
102
RTVSPropertyOp13
 70
     1
102
RTVSPropertyOp14
 70
     1
102
RTVSPropertyOp15
 70
     1
102
RTVSPropertyOp16
 70
     1
102
RTVSPropertyOp17
 70
     1
102
RTVSPropertyOp18
 70
     1
102
RTVSPropertyOp19
 70
     1
102
RTVSPropertyOp20
 70
     1
102
RTVSPropertyOp21
 70
     1
102
RTVSPropertyOp22
 70
     1
102
RTVSPropertyOp23
 70
     1
102
RTVSPropertyOp24
 70
     1
102
RTVSPropertyOp25
 70
     1
102
RTVSPropertyOp26
 70
     1
102
RTVSPropertyOp27
 70
     1
102
RTVSPropertyOp28
 70
     1
102
RTVSPropertyOp29
 70
     1
102
RTVSPropertyOp30
 70
     1
102
RTVSPropertyOp31
 70
     1
102
RTVSPropertyOp32
 70
     1
  0
XRECORD
  5
58D
102
{ACAD_REACTORS
330
58C
102
}
330
58C
100
AcDbXrecord
280
     1
102
RTVSPropertyOp0
 70
     1
102
RTVSPropertyOp1
 70
     1
102
RTVSPropertyOp2
 70
     1
102
RTVSPropertyOp3
 70
     1
102
RTVSPropertyOp4
 70
     1
102
RTVSPropertyOp5
 70
     1
102
RTVSPropertyOp6
 70
     1
102
RTVSPropertyOp7
 70
     1
102
RTVSPropertyOp8
 70
     1
102
RTVSPropertyOp9
 70
     1
102
RTVSPropertyOp10
 70
     1
102
RTVSPropertyOp11
 70
     1
102
RTVSPropertyOp12
 70
     1
102
RTVSPropertyOp13
 70
     1
102
RTVSPropertyOp14
 70
     1
102
RTVSPropertyOp15
 70
     1
102
RTVSPropertyOp16
 70
     1
102
RTVSPropertyOp17
 70
     1
102
RTVSPropertyOp18
 70
     1
102
RTVSPropertyOp19
 70
     1
102
RTVSPropertyOp20
 70
     1
102
RTVSPropertyOp21
 70
     1
102
RTVSPropertyOp22
 70
     1
102
RTVSPropertyOp23
 70
     1
102
RTVSPropertyOp24
 70
     1
102
RTVSPropertyOp25
 70
     1
102
RTVSPropertyOp26
 70
     1
102
RTVSPropertyOp27
 70
     1
102
RTVSPropertyOp28
 70
     1
102
RTVSPropertyOp29
 70
     1
102
RTVSPropertyOp30
 70
     1
102
RTVSPropertyOp31
 70
     1
102
RTVSPropertyOp32
 70
     1
  0
XRECORD
  5
571
102
{ACAD_REACTORS
330
570
102
}
330
570
100
AcDbXrecord
280
     1
102
RTVSPropertyOp0
 70
     1
102
RTVSPropertyOp1
 70
     1
102
RTVSPropertyOp2
 70
     1
102
RTVSPropertyOp3
 70
     1
102
RTVSPropertyOp4
 70
     1
102
RTVSPropertyOp5
 70
     1
102
RTVSPropertyOp6
 70
     1
102
RTVSPropertyOp7
 70
     1
102
RTVSPropertyOp8
 70
     1
102
RTVSPropertyOp9
 70
     1
102
RTVSPropertyOp10
 70
     1
102
RTVSPropertyOp11
 70
     1
102
RTVSPropertyOp12
 70
     1
102
RTVSPropertyOp13
 70
     1
102
RTVSPropertyOp14
 70
     1
102
RTVSPropertyOp15
 70
     1
102
RTVSPropertyOp16
 70
     1
102
RTVSPropertyOp17
 70
     1
102
RTVSPropertyOp18
 70
     1
102
RTVSPropertyOp19
 70
     1
102
RTVSPropertyOp20
 70
     1
102
RTVSPropertyOp21
 70
     1
102
RTVSPropertyOp22
 70
     1
102
RTVSPropertyOp23
 70
     1
102
RTVSPropertyOp24
 70
     1
102
RTVSPropertyOp25
 70
     1
102
RTVSPropertyOp26
 70
     1
102
RTVSPropertyOp27
 70
     1
102
RTVSPropertyOp28
 70
     1
102
RTVSPropertyOp29
 70
     1
102
RTVSPropertyOp30
 70
     1
102
RTVSPropertyOp31
 70
     1
102
RTVSPropertyOp32
 70
     1
  0
XRECORD
  5
573
102
{ACAD_REACTORS
330
572
102
}
330
572
100
AcDbXrecord
280
     1
102
RTVSPropertyOp0
 70
     1
102
RTVSPropertyOp1
 70
     1
102
RTVSPropertyOp2
 70
     1
102
RTVSPropertyOp3
 70
     1
102
RTVSPropertyOp4
 70
     1
102
RTVSPropertyOp5
 70
     1
102
RTVSPropertyOp6
 70
     1
102
RTVSPropertyOp7
 70
     1
102
RTVSPropertyOp8
 70
     1
102
RTVSPropertyOp9
 70
     1
102
RTVSPropertyOp10
 70
     1
102
RTVSPropertyOp11
 70
     1
102
RTVSPropertyOp12
 70
     1
102
RTVSPropertyOp13
 70
     1
102
RTVSPropertyOp14
 70
     1
102
RTVSPropertyOp15
 70
     1
102
RTVSPropertyOp16
 70
     1
102
RTVSPropertyOp17
 70
     1
102
RTVSPropertyOp18
 70
     1
102
RTVSPropertyOp19
 70
     1
102
RTVSPropertyOp20
 70
     1
102
RTVSPropertyOp21
 70
     1
102
RTVSPropertyOp22
 70
     1
102
RTVSPropertyOp23
 70
     1
102
RTVSPropertyOp24
 70
     1
102
RTVSPropertyOp25
 70
     1
102
RTVSPropertyOp26
 70
     1
102
RTVSPropertyOp27
 70
     1
102
RTVSPropertyOp28
 70
     1
102
RTVSPropertyOp29
 70
     1
102
RTVSPropertyOp30
 70
     1
102
RTVSPropertyOp31
 70
     1
102
RTVSPropertyOp32
 70
     1
  0
XRECORD
  5
575
102
{ACAD_REACTORS
330
574
102
}
330
574
100
AcDbXrecord
280
     1
102
RTVSPropertyOp0
 70
     1
102
RTVSPropertyOp1
 70
     1
102
RTVSPropertyOp2
 70
     1
102
RTVSPropertyOp3
 70
     1
102
RTVSPropertyOp4
 70
     1
102
RTVSPropertyOp5
 70
     1
102
RTVSPropertyOp6
 70
     1
102
RTVSPropertyOp7
 70
     1
102
RTVSPropertyOp8
 70
     1
102
RTVSPropertyOp9
 70
     1
102
RTVSPropertyOp10
 70
     1
102
RTVSPropertyOp11
 70
     1
102
RTVSPropertyOp12
 70
     1
102
RTVSPropertyOp13
 70
     1
102
RTVSPropertyOp14
 70
     1
102
RTVSPropertyOp15
 70
     1
102
RTVSPropertyOp16
 70
     1
102
RTVSPropertyOp17
 70
     1
102
RTVSPropertyOp18
 70
     1
102
RTVSPropertyOp19
 70
     1
102
RTVSPropertyOp20
 70
     1
102
RTVSPropertyOp21
 70
     1
102
RTVSPropertyOp22
 70
     1
102
RTVSPropertyOp23
 70
     1
102
RTVSPropertyOp24
 70
     1
102
RTVSPropertyOp25
 70
     1
102
RTVSPropertyOp26
 70
     1
102
RTVSPropertyOp27
 70
     1
102
RTVSPropertyOp28
 70
     1
102
RTVSPropertyOp29
 70
     1
102
RTVSPropertyOp30
 70
     1
102
RTVSPropertyOp31
 70
     1
102
RTVSPropertyOp32
 70
     1
  0
XRECORD
  5
577
102
{ACAD_REACTORS
330
576
102
}
330
576
100
AcDbXrecord
280
     1
102
RTVSPropertyOp0
 70
     1
102
RTVSPropertyOp1
 70
     1
102
RTVSPropertyOp2
 70
     1
102
RTVSPropertyOp3
 70
     1
102
RTVSPropertyOp4
 70
     1
102
RTVSPropertyOp5
 70
     1
102
RTVSPropertyOp6
 70
     1
102
RTVSPropertyOp7
 70
     1
102
RTVSPropertyOp8
 70
     1
102
RTVSPropertyOp9
 70
     1
102
RTVSPropertyOp10
 70
     1
102
RTVSPropertyOp11
 70
     1
102
RTVSPropertyOp12
 70
     1
102
RTVSPropertyOp13
 70
     1
102
RTVSPropertyOp14
 70
     1
102
RTVSPropertyOp15
 70
     1
102
RTVSPropertyOp16
 70
     1
102
RTVSPropertyOp17
 70
     1
102
RTVSPropertyOp18
 70
     1
102
RTVSPropertyOp19
 70
     1
102
RTVSPropertyOp20
 70
     1
102
RTVSPropertyOp21
 70
     1
102
RTVSPropertyOp22
 70
     1
102
RTVSPropertyOp23
 70
     1
102
RTVSPropertyOp24
 70
     1
102
RTVSPropertyOp25
 70
     1
102
RTVSPropertyOp26
 70
     1
102
RTVSPropertyOp27
 70
     1
102
RTVSPropertyOp28
 70
     1
102
RTVSPropertyOp29
 70
     1
102
RTVSPropertyOp30
 70
     1
102
RTVSPropertyOp31
 70
     1
102
RTVSPropertyOp32
 70
     1
  0
XRECORD
  5
58B
102
{ACAD_REACTORS
330
58A
102
}
330
58A
100
AcDbXrecord
280
     1
102
RTVSPropertyOp0
 70
     1
102
RTVSPropertyOp1
 70
     1
102
RTVSPropertyOp2
 70
     1
102
RTVSPropertyOp3
 70
     1
102
RTVSPropertyOp4
 70
     1
102
RTVSPropertyOp5
 70
     1
102
RTVSPropertyOp6
 70
     1
102
RTVSPropertyOp7
 70
     1
102
RTVSPropertyOp8
 70
     1
102
RTVSPropertyOp9
 70
     1
102
RTVSPropertyOp10
 70
     1
102
RTVSPropertyOp11
 70
     1
102
RTVSPropertyOp12
 70
     1
102
RTVSPropertyOp13
 70
     1
102
RTVSPropertyOp14
 70
     1
102
RTVSPropertyOp15
 70
     1
102
RTVSPropertyOp16
 70
     1
102
RTVSPropertyOp17
 70
     1
102
RTVSPropertyOp18
 70
     1
102
RTVSPropertyOp19
 70
     1
102
RTVSPropertyOp20
 70
     1
102
RTVSPropertyOp21
 70
     1
102
RTVSPropertyOp22
 70
     1
102
RTVSPropertyOp23
 70
     1
102
RTVSPropertyOp24
 70
     1
102
RTVSPropertyOp25
 70
     1
102
RTVSPropertyOp26
 70
     1
102
RTVSPropertyOp27
 70
     1
102
RTVSPropertyOp28
 70
     1
102
RTVSPropertyOp29
 70
     1
102
RTVSPropertyOp30
 70
     1
102
RTVSPropertyOp31
 70
     1
102
RTVSPropertyOp32
 70
     1
  0
XRECORD
  5
581
102
{ACAD_REACTORS
330
580
102
}
330
580
100
AcDbXrecord
280
     1
102
RTVSPropertyOp0
 70
     1
102
RTVSPropertyOp1
 70
     1
102
RTVSPropertyOp2
 70
     1
102
RTVSPropertyOp3
 70
     1
102
RTVSPropertyOp4
 70
     1
102
RTVSPropertyOp5
 70
     1
102
RTVSPropertyOp6
 70
     1
102
RTVSPropertyOp7
 70
     1
102
RTVSPropertyOp8
 70
     1
102
RTVSPropertyOp9
 70
     1
102
RTVSPropertyOp10
 70
     1
102
RTVSPropertyOp11
 70
     1
102
RTVSPropertyOp12
 70
     1
102
RTVSPropertyOp13
 70
     1
102
RTVSPropertyOp14
 70
     1
102
RTVSPropertyOp15
 70
     1
102
RTVSPropertyOp16
 70
     1
102
RTVSPropertyOp17
 70
     1
102
RTVSPropertyOp18
 70
     1
102
RTVSPropertyOp19
 70
     1
102
RTVSPropertyOp20
 70
     1
102
RTVSPropertyOp21
 70
     1
102
RTVSPropertyOp22
 70
     1
102
RTVSPropertyOp23
 70
     1
102
RTVSPropertyOp24
 70
     1
102
RTVSPropertyOp25
 70
     1
102
RTVSPropertyOp26
 70
     1
102
RTVSPropertyOp27
 70
     1
102
RTVSPropertyOp28
 70
     1
102
RTVSPropertyOp29
 70
     1
102
RTVSPropertyOp30
 70
     1
102
RTVSPropertyOp31
 70
     1
102
RTVSPropertyOp32
 70
     1
  0
XRECORD
  5
589
102
{ACAD_REACTORS
330
588
102
}
330
588
100
AcDbXrecord
280
     1
102
RTVSPropertyOp0
 70
     1
102
RTVSPropertyOp1
 70
     1
102
RTVSPropertyOp2
 70
     1
102
RTVSPropertyOp3
 70
     1
102
RTVSPropertyOp4
 70
     1
102
RTVSPropertyOp5
 70
     1
102
RTVSPropertyOp6
 70
     1
102
RTVSPropertyOp7
 70
     1
102
RTVSPropertyOp8
 70
     1
102
RTVSPropertyOp9
 70
     1
102
RTVSPropertyOp10
 70
     1
102
RTVSPropertyOp11
 70
     1
102
RTVSPropertyOp12
 70
     1
102
RTVSPropertyOp13
 70
     1
102
RTVSPropertyOp14
 70
     1
102
RTVSPropertyOp15
 70
     1
102
RTVSPropertyOp16
 70
     1
102
RTVSPropertyOp17
 70
     1
102
RTVSPropertyOp18
 70
     1
102
RTVSPropertyOp19
 70
     1
102
RTVSPropertyOp20
 70
     1
102
RTVSPropertyOp21
 70
     1
102
RTVSPropertyOp22
 70
     1
102
RTVSPropertyOp23
 70
     1
102
RTVSPropertyOp24
 70
     1
102
RTVSPropertyOp25
 70
     1
102
RTVSPropertyOp26
 70
     1
102
RTVSPropertyOp27
 70
     1
102
RTVSPropertyOp28
 70
     1
102
RTVSPropertyOp29
 70
     1
102
RTVSPropertyOp30
 70
     1
102
RTVSPropertyOp31
 70
     1
102
RTVSPropertyOp32
 70
     1
  0
ENDSEC
  0
EOF
